  0
SECTION
  2
HEADER
  9
$ACADVER
  1
AC1015
  9
$ACADMAINTVER
 70
    20
  9
$DWGCODEPAGE
  3
ANSI_932
  9
$INSBASE
 10
0.0
 20
0.0
 30
0.0
  9
$EXTMIN
 10
-0.0064041928748111
 20
-0.0634434171593057
 30
-0.0000000000112498
  9
$EXTMAX
 10
420.0064100605656
 20
297.0211555507981
 30
0.0000000000002956
  9
$LIMMIN
 10
0.0
 20
0.0
  9
$LIMMAX
 10
420.0
 20
297.0
  9
$ORTHOMODE
 70
     0
  9
$REGENMODE
 70
     1
  9
$FILLMODE
 70
     1
  9
$QTEXTMODE
 70
     0
  9
$MIRRTEXT
 70
     1
  9
$LTSCALE
 40
8.4
  9
$ATTMODE
 70
     1
  9
$TEXTSIZE
 40
0.2
  9
$TRACEWID
 40
0.05
  9
$TEXTSTYLE
  7
STANDARD
  9
$CLAYER
  8
0
  9
$CELTYPE
  6
CONTINUOUS
  9
$CECOLOR
 62
   256
  9
$CELTSCALE
 40
1.0
  9
$DISPSILH
 70
     0
  9
$DIMSCALE
 40
1.0
  9
$DIMASZ
 40
0.18
  9
$DIMEXO
 40
0.0625
  9
$DIMDLI
 40
0.38
  9
$DIMRND
 40
0.0
  9
$DIMDLE
 40
0.0
  9
$DIMEXE
 40
0.18
  9
$DIMTP
 40
0.0
  9
$DIMTM
 40
0.0
  9
$DIMTXT
 40
0.18
  9
$DIMCEN
 40
0.09
  9
$DIMTSZ
 40
0.0
  9
$DIMTOL
 70
     0
  9
$DIMLIM
 70
     0
  9
$DIMTIH
 70
     1
  9
$DIMTOH
 70
     1
  9
$DIMSE1
 70
     0
  9
$DIMSE2
 70
     0
  9
$DIMTAD
 70
     0
  9
$DIMZIN
 70
     0
  9
$DIMBLK
  1

  9
$DIMASO
 70
     1
  9
$DIMSHO
 70
     1
  9
$DIMPOST
  1

  9
$DIMAPOST
  1

  9
$DIMALT
 70
     0
  9
$DIMALTD
 70
     2
  9
$DIMALTF
 40
25.4
  9
$DIMLFAC
 40
1.0
  9
$DIMTOFL
 70
     0
  9
$DIMTVP
 40
0.0
  9
$DIMTIX
 70
     0
  9
$DIMSOXD
 70
     0
  9
$DIMSAH
 70
     0
  9
$DIMBLK1
  1

  9
$DIMBLK2
  1

  9
$DIMSTYLE
  2
STANDARD
  9
$DIMCLRD
 70
     0
  9
$DIMCLRE
 70
     0
  9
$DIMCLRT
 70
     0
  9
$DIMTFAC
 40
1.0
  9
$DIMGAP
 40
0.09
  9
$DIMJUST
 70
     0
  9
$DIMSD1
 70
     0
  9
$DIMSD2
 70
     0
  9
$DIMTOLJ
 70
     1
  9
$DIMTZIN
 70
     0
  9
$DIMALTZ
 70
     0
  9
$DIMALTTZ
 70
     0
  9
$DIMUPT
 70
     0
  9
$DIMDEC
 70
     4
  9
$DIMTDEC
 70
     4
  9
$DIMALTU
 70
     2
  9
$DIMALTTD
 70
     2
  9
$DIMTXSTY
  7
STANDARD
  9
$DIMAUNIT
 70
     0
  9
$DIMADEC
 70
     0
  9
$DIMALTRND
 40
0.0
  9
$DIMAZIN
 70
     0
  9
$DIMDSEP
 70
    46
  9
$DIMATFIT
 70
     3
  9
$DIMFRAC
 70
     0
  9
$DIMLDRBLK
  1

  9
$DIMLUNIT
 70
     2
  9
$DIMLWD
 70
    -2
  9
$DIMLWE
 70
    -2
  9
$DIMTMOVE
 70
     0
  9
$LUNITS
 70
     2
  9
$LUPREC
 70
     4
  9
$SKETCHINC
 40
0.1
  9
$FILLETRAD
 40
0.0
  9
$AUNITS
 70
     0
  9
$AUPREC
 70
     0
  9
$MENU
  1
.
  9
$ELEVATION
 40
0.0
  9
$PELEVATION
 40
0.0
  9
$THICKNESS
 40
0.0
  9
$LIMCHECK
 70
     0
  9
$CHAMFERA
 40
0.0
  9
$CHAMFERB
 40
0.0
  9
$CHAMFERC
 40
0.0
  9
$CHAMFERD
 40
0.0
  9
$SKPOLY
 70
     0
  9
$TDCREATE
 40
2451212.682759178
  9
$TDUCREATE
 40
2451212.307759178
  9
$TDUPDATE
 40
2458321.637426030
  9
$TDUUPDATE
 40
2458321.262426030
  9
$TDINDWG
 40
0.0105076157
  9
$TDUSRTIMER
 40
0.0105076157
  9
$USRTIMER
 70
     1
  9
$ANGBASE
 50
0.0
  9
$ANGDIR
 70
     0
  9
$PDMODE
 70
     0
  9
$PDSIZE
 40
0.0
  9
$PLINEWID
 40
0.0
  9
$SPLFRAME
 70
     0
  9
$SPLINETYPE
 70
     6
  9
$SPLINESEGS
 70
     8
  9
$HANDSEED
  5
AE4
  9
$SURFTAB1
 70
     6
  9
$SURFTAB2
 70
     6
  9
$SURFTYPE
 70
     6
  9
$SURFU
 70
     6
  9
$SURFV
 70
     6
  9
$UCSBASE
  2

  9
$UCSNAME
  2

  9
$UCSORG
 10
0.0
 20
0.0
 30
0.0
  9
$UCSXDIR
 10
1.0
 20
0.0
 30
0.0
  9
$UCSYDIR
 10
0.0
 20
1.0
 30
0.0
  9
$UCSORTHOREF
  2

  9
$UCSORTHOVIEW
 70
     0
  9
$UCSORGTOP
 10
0.0
 20
0.0
 30
0.0
  9
$UCSORGBOTTOM
 10
0.0
 20
0.0
 30
0.0
  9
$UCSORGLEFT
 10
0.0
 20
0.0
 30
0.0
  9
$UCSORGRIGHT
 10
0.0
 20
0.0
 30
0.0
  9
$UCSORGFRONT
 10
0.0
 20
0.0
 30
0.0
  9
$UCSORGBACK
 10
0.0
 20
0.0
 30
0.0
  9
$PUCSBASE
  2

  9
$PUCSNAME
  2

  9
$PUCSORG
 10
0.0
 20
0.0
 30
0.0
  9
$PUCSXDIR
 10
1.0
 20
0.0
 30
0.0
  9
$PUCSYDIR
 10
0.0
 20
1.0
 30
0.0
  9
$PUCSORTHOREF
  2

  9
$PUCSORTHOVIEW
 70
     0
  9
$PUCSORGTOP
 10
0.0
 20
0.0
 30
0.0
  9
$PUCSORGBOTTOM
 10
0.0
 20
0.0
 30
0.0
  9
$PUCSORGLEFT
 10
0.0
 20
0.0
 30
0.0
  9
$PUCSORGRIGHT
 10
0.0
 20
0.0
 30
0.0
  9
$PUCSORGFRONT
 10
0.0
 20
0.0
 30
0.0
  9
$PUCSORGBACK
 10
0.0
 20
0.0
 30
0.0
  9
$USERI1
 70
     0
  9
$USERI2
 70
     0
  9
$USERI3
 70
     0
  9
$USERI4
 70
     0
  9
$USERI5
 70
     0
  9
$USERR1
 40
0.0
  9
$USERR2
 40
0.0
  9
$USERR3
 40
0.0
  9
$USERR4
 40
0.0
  9
$USERR5
 40
0.0
  9
$WORLDVIEW
 70
     1
  9
$SHADEDGE
 70
     3
  9
$SHADEDIF
 70
    70
  9
$TILEMODE
 70
     1
  9
$MAXACTVP
 70
    16
  9
$PINSBASE
 10
0.0
 20
0.0
 30
0.0
  9
$PLIMCHECK
 70
     0
  9
$PEXTMIN
 10
1.000000000000000E+20
 20
1.000000000000000E+20
 30
1.000000000000000E+20
  9
$PEXTMAX
 10
-1.000000000000000E+20
 20
-1.000000000000000E+20
 30
-1.000000000000000E+20
  9
$PLIMMIN
 10
0.0
 20
0.0
  9
$PLIMMAX
 10
12.0
 20
9.0
  9
$UNITMODE
 70
     0
  9
$VISRETAIN
 70
     1
  9
$PLINEGEN
 70
     0
  9
$PSLTSCALE
 70
     1
  9
$TREEDEPTH
 70
  3020
  9
$CMLSTYLE
  2
STANDARD
  9
$CMLJUST
 70
     0
  9
$CMLSCALE
 40
1.0
  9
$PROXYGRAPHICS
 70
     1
  9
$MEASUREMENT
 70
     0
  9
$CELWEIGHT
370
    -1
  9
$ENDCAPS
280
     0
  9
$JOINSTYLE
280
     0
  9
$LWDISPLAY
290
     0
  9
$INSUNITS
 70
     0
  9
$HYPERLINKBASE
  1

  9
$STYLESHEET
  1

  9
$XEDIT
290
     1
  9
$CEPSNTYPE
380
     0
  9
$PSTYLEMODE
290
     0
  9
$FINGERPRINTGUID
  2
{CD040D11-B4F0-4F61-A8BD-26F2D04E472A}
  9
$VERSIONGUID
  2
{8BE3D626-E13F-43F8-ADAC-1DA1F0579D1D}
  9
$EXTNAMES
290
     1
  9
$PSVPSCALE
 40
0.0
  9
$OLESTARTUP
290
     0
  0
ENDSEC
  0
SECTION
  2
CLASSES
  0
CLASS
  1
ACDBDICTIONARYWDFLT
  2
AcDbDictionaryWithDefault
  3
ObjectDBX Classes
 90
        0
280
     0
281
     0
  0
CLASS
  1
TABLESTYLE
  2
AcDbTableStyle
  3
ObjectDBX Classes
 90
     4095
280
     0
281
     0
  0
CLASS
  1
DICTIONARYVAR
  2
AcDbDictionaryVar
  3
ObjectDBX Classes
 90
        0
280
     0
281
     0
  0
CLASS
  1
ACDBPLACEHOLDER
  2
AcDbPlaceHolder
  3
ObjectDBX Classes
 90
        0
280
     0
281
     0
  0
CLASS
  1
LAYOUT
  2
AcDbLayout
  3
ObjectDBX Classes
 90
        0
280
     0
281
     0
  0
CLASS
  1
MATERIAL
  2
AcDbMaterial
  3
ObjectDBX Classes
 90
     1153
280
     0
281
     0
  0
CLASS
  1
VISUALSTYLE
  2
AcDbVisualStyle
  3
ObjectDBX Classes
 90
     4095
280
     0
281
     0
  0
CLASS
  1
SCALE
  2
AcDbScale
  3
ObjectDBX Classes
 90
     1153
280
     0
281
     0
  0
CLASS
  1
MLEADERSTYLE
  2
AcDbMLeaderStyle
  3
ACDB_MLEADERSTYLE_CLASS
 90
     4095
280
     0
281
     0
  0
CLASS
  1
SORTENTSTABLE
  2
AcDbSortentsTable
  3
ObjectDBX Classes
 90
        0
280
     0
281
     0
  0
CLASS
  1
CELLSTYLEMAP
  2
AcDbCellStyleMap
  3
ObjectDBX Classes
 90
     1152
280
     0
281
     0
  0
ENDSEC
  0
SECTION
  2
TABLES
  0
TABLE
  2
VPORT
  5
1
330
0
100
AcDbSymbolTable
 70
     1
  0
VPORT
  5
92D
330
1
100
AcDbSymbolTableRecord
100
AcDbViewportTableRecord
  2
*Active
 70
     0
 10
0.0
 20
0.0
 11
1.0
 21
1.0
 12
210.0000029338454
 22
148.4788560668194
 13
0.0
 23
0.0
 14
1.0
 24
1.0
 15
0.0
 25
0.0
 16
0.0
 26
0.0
 36
1.0
 17
0.0
 27
0.0
 37
0.0
 40
299.8828840445786
 41
1.882075471698112
 42
50.0
 43
0.0
 44
0.0
 50
0.0
 51
0.0
 71
     0
 72
   100
 73
     1
 74
     1
 75
     0
 76
     0
 77
     0
 78
     0
281
     0
 65
     1
110
0.0
120
0.0
130
0.0
111
1.0
121
0.0
131
0.0
112
0.0
122
1.0
132
0.0
 79
     0
146
0.0
1001
ACAD_NAV_VCDISPLAY
1070
     3
  0
ENDTAB
  0
TABLE
  2
LTYPE
  5
69
330
0
100
AcDbSymbolTable
 70
    25
  0
LTYPE
  5
1D
330
69
100
AcDbSymbolTableRecord
100
AcDbLinetypeTableRecord
  2
BYBLOCK
 70
     0
  3

 72
    65
 73
     0
 40
0.0
  0
LTYPE
  5
1E
330
69
100
AcDbSymbolTableRecord
100
AcDbLinetypeTableRecord
  2
BYLAYER
 70
     0
  3

 72
    65
 73
     0
 40
0.0
  0
LTYPE
  5
1F
330
69
100
AcDbSymbolTableRecord
100
AcDbLinetypeTableRecord
  2
CONTINUOUS
 70
     0
  3
Solid line
 72
    65
 73
     0
 40
0.0
  0
LTYPE
  5
20
330
69
100
AcDbSymbolTableRecord
100
AcDbLinetypeTableRecord
  2
BORDER
 70
     0
  3
__ __ . __ __ . __ __ . __ __ . __ __ . __ __ .
 72
    65
 73
     6
 40
1.75
 49
0.5
 74
     0
 49
-0.25
 74
     0
 49
0.5
 74
     0
 49
-0.25
 74
     0
 49
0.0
 74
     0
 49
-0.25
 74
     0
  0
LTYPE
  5
21
330
69
100
AcDbSymbolTableRecord
100
AcDbLinetypeTableRecord
  2
BORDER2
 70
     0
  3
__.__.__.__.__.__.__.__.__.__.__.__.__.__.__.__
 72
    65
 73
     6
 40
0.875
 49
0.25
 74
     0
 49
-0.125
 74
     0
 49
0.25
 74
     0
 49
-0.125
 74
     0
 49
0.0
 74
     0
 49
-0.125
 74
     0
  0
LTYPE
  5
22
330
69
100
AcDbSymbolTableRecord
100
AcDbLinetypeTableRecord
  2
BORDERX2
 70
     0
  3
____  ____  .  ____  ____  .  ____  ____  .  __
 72
    65
 73
     6
 40
3.5
 49
1.0
 74
     0
 49
-0.5
 74
     0
 49
1.0
 74
     0
 49
-0.5
 74
     0
 49
0.0
 74
     0
 49
-0.5
 74
     0
  0
LTYPE
  5
23
330
69
100
AcDbSymbolTableRecord
100
AcDbLinetypeTableRecord
  2
CENTER
 70
     0
  3
____ _ ____ _ ____ _ ____ _ ____ _ ____ _ ____ 
 72
    65
 73
     4
 40
2.0
 49
1.25
 74
     0
 49
-0.25
 74
     0
 49
0.25
 74
     0
 49
-0.25
 74
     0
  0
LTYPE
  5
24
330
69
100
AcDbSymbolTableRecord
100
AcDbLinetypeTableRecord
  2
CENTER2
 70
     0
  3
___ _ ___ _ ___ _ ___ _ ___ _ ___ _ ___ _ ___ _
 72
    65
 73
     4
 40
1.125
 49
0.75
 74
     0
 49
-0.125
 74
     0
 49
0.125
 74
     0
 49
-0.125
 74
     0
  0
LTYPE
  5
25
330
69
100
AcDbSymbolTableRecord
100
AcDbLinetypeTableRecord
  2
CENTERX2
 70
     0
  3
________  __  ________  __  ________  __  _____
 72
    65
 73
     4
 40
4.0
 49
2.5
 74
     0
 49
-0.5
 74
     0
 49
0.5
 74
     0
 49
-0.5
 74
     0
  0
LTYPE
  5
26
330
69
100
AcDbSymbolTableRecord
100
AcDbLinetypeTableRecord
  2
DASHDOT
 70
     0
  3
__ . __ . __ . __ . __ . __ . __ . __ . __ . __
 72
    65
 73
     4
 40
1.0
 49
0.5
 74
     0
 49
-0.25
 74
     0
 49
0.0
 74
     0
 49
-0.25
 74
     0
  0
LTYPE
  5
27
330
69
100
AcDbSymbolTableRecord
100
AcDbLinetypeTableRecord
  2
DASHDOT2
 70
     0
  3
_._._._._._._._._._._._._._._._._._._._._._._._
 72
    65
 73
     4
 40
0.5
 49
0.25
 74
     0
 49
-0.125
 74
     0
 49
0.0
 74
     0
 49
-0.125
 74
     0
  0
LTYPE
  5
28
330
69
100
AcDbSymbolTableRecord
100
AcDbLinetypeTableRecord
  2
DASHDOTX2
 70
     0
  3
____  .  ____  .  ____  .  ____  .  ____  .  __
 72
    65
 73
     4
 40
2.0
 49
1.0
 74
     0
 49
-0.5
 74
     0
 49
0.0
 74
     0
 49
-0.5
 74
     0
  0
LTYPE
  5
29
330
69
100
AcDbSymbolTableRecord
100
AcDbLinetypeTableRecord
  2
DASHED
 70
     0
  3
__ __ __ __ __ __ __ __ __ __ __ __ __ __ __ __
 72
    65
 73
     2
 40
0.75
 49
0.5
 74
     0
 49
-0.25
 74
     0
  0
LTYPE
  5
2A
330
69
100
AcDbSymbolTableRecord
100
AcDbLinetypeTableRecord
  2
DASHED2
 70
     0
  3
_ _ _ _ _ _ _ _ _ _ _ _ _ _ _ _ _ _ _ _ _ _ _ _
 72
    65
 73
     2
 40
0.375
 49
0.25
 74
     0
 49
-0.125
 74
     0
  0
LTYPE
  5
2B
330
69
100
AcDbSymbolTableRecord
100
AcDbLinetypeTableRecord
  2
DASHEDX2
 70
     0
  3
____  ____  ____  ____  ____  ____  ____  ____ 
 72
    65
 73
     2
 40
1.5
 49
1.0
 74
     0
 49
-0.5
 74
     0
  0
LTYPE
  5
2C
330
69
100
AcDbSymbolTableRecord
100
AcDbLinetypeTableRecord
  2
DIVIDE
 70
     0
  3
____ . . ____ . . ____ . . ____ . . ____ . . __
 72
    65
 73
     6
 40
1.25
 49
0.5
 74
     0
 49
-0.25
 74
     0
 49
0.0
 74
     0
 49
-0.25
 74
     0
 49
0.0
 74
     0
 49
-0.25
 74
     0
  0
LTYPE
  5
2D
330
69
100
AcDbSymbolTableRecord
100
AcDbLinetypeTableRecord
  2
DIVIDE2
 70
     0
  3
__..__..__..__..__..__..__..__..__..__..__..__.
 72
    65
 73
     6
 40
0.625
 49
0.25
 74
     0
 49
-0.125
 74
     0
 49
0.0
 74
     0
 49
-0.125
 74
     0
 49
0.0
 74
     0
 49
-0.125
 74
     0
  0
LTYPE
  5
2E
330
69
100
AcDbSymbolTableRecord
100
AcDbLinetypeTableRecord
  2
DIVIDEX2
 70
     0
  3
________  .  .  ________  .  .  ________  .  . 
 72
    65
 73
     6
 40
2.5
 49
1.0
 74
     0
 49
-0.5
 74
     0
 49
0.0
 74
     0
 49
-0.5
 74
     0
 49
0.0
 74
     0
 49
-0.5
 74
     0
  0
LTYPE
  5
2F
330
69
100
AcDbSymbolTableRecord
100
AcDbLinetypeTableRecord
  2
DOT
 70
     0
  3
. . . . . . . . . . . . . . . . . . . . . . . .
 72
    65
 73
     2
 40
0.25
 49
0.0
 74
     0
 49
-0.25
 74
     0
  0
LTYPE
  5
30
330
69
100
AcDbSymbolTableRecord
100
AcDbLinetypeTableRecord
  2
DOT2
 70
     0
  3
...............................................
 72
    65
 73
     2
 40
0.125
 49
0.0
 74
     0
 49
-0.125
 74
     0
  0
LTYPE
  5
31
330
69
100
AcDbSymbolTableRecord
100
AcDbLinetypeTableRecord
  2
DOTX2
 70
     0
  3
.  .  .  .  .  .  .  .  .  .  .  .  .  .  .  . 
 72
    65
 73
     2
 40
0.5
 49
0.0
 74
     0
 49
-0.5
 74
     0
  0
LTYPE
  5
32
330
69
100
AcDbSymbolTableRecord
100
AcDbLinetypeTableRecord
  2
HIDDEN
 70
     0
  3
__ __ __ __ __ __ __ __ __ __ __ __ __ __ __ __
 72
    65
 73
     2
 40
0.375
 49
0.25
 74
     0
 49
-0.125
 74
     0
  0
LTYPE
  5
33
330
69
100
AcDbSymbolTableRecord
100
AcDbLinetypeTableRecord
  2
HIDDEN2
 70
     0
  3
_ _ _ _ _ _ _ _ _ _ _ _ _ _ _ _ _ _ _ _ _ _ _ _
 72
    65
 73
     2
 40
0.1875
 49
0.125
 74
     0
 49
-0.0625
 74
     0
  0
LTYPE
  5
34
330
69
100
AcDbSymbolTableRecord
100
AcDbLinetypeTableRecord
  2
HIDDENX2
 70
     0
  3
____ ____ ____ ____ ____ ____ ____ ____ ____ __
 72
    65
 73
     2
 40
0.75
 49
0.5
 74
     0
 49
-0.25
 74
     0
  0
LTYPE
  5
35
330
69
100
AcDbSymbolTableRecord
100
AcDbLinetypeTableRecord
  2
PHANTOM
 70
     0
  3
______  __  __  ______  __  __  ______  __  __ 
 72
    65
 73
     6
 40
2.5
 49
1.25
 74
     0
 49
-0.25
 74
     0
 49
0.25
 74
     0
 49
-0.25
 74
     0
 49
0.25
 74
     0
 49
-0.25
 74
     0
  0
LTYPE
  5
36
330
69
100
AcDbSymbolTableRecord
100
AcDbLinetypeTableRecord
  2
PHANTOM2
 70
     0
  3
___ _ _ ___ _ _ ___ _ _ ___ _ _ ___ _ _ ___ _ _
 72
    65
 73
     6
 40
1.25
 49
0.625
 74
     0
 49
-0.125
 74
     0
 49
0.125
 74
     0
 49
-0.125
 74
     0
 49
0.125
 74
     0
 49
-0.125
 74
     0
  0
LTYPE
  5
37
330
69
100
AcDbSymbolTableRecord
100
AcDbLinetypeTableRecord
  2
PHANTOMX2
 70
     0
  3
____________    ____    ____    ____________   
 72
    65
 73
     6
 40
5.0
 49
2.5
 74
     0
 49
-0.5
 74
     0
 49
0.5
 74
     0
 49
-0.5
 74
     0
 49
0.5
 74
     0
 49
-0.5
 74
     0
  0
ENDTAB
  0
TABLE
  2
LAYER
  5
68
102
{ACAD_XDICTIONARY
360
98E
102
}
330
0
100
AcDbSymbolTable
 70
     4
  0
LAYER
  5
38
102
{ACAD_XDICTIONARY
360
983
102
}
330
68
100
AcDbSymbolTableRecord
100
AcDbLayerTableRecord
  2
0
 70
     0
 62
     7
  6
CONTINUOUS
370
    -3
390
910
  0
LAYER
  5
39
102
{ACAD_XDICTIONARY
360
985
102
}
330
68
100
AcDbSymbolTableRecord
100
AcDbLayerTableRecord
  2
LEVEL001
 70
     0
 62
     7
  6
CONTINUOUS
370
    -3
390
910
  0
LAYER
  5
3A
102
{ACAD_XDICTIONARY
360
987
102
}
330
68
100
AcDbSymbolTableRecord
100
AcDbLayerTableRecord
  2
LEVEL003
 70
     0
 62
     7
  6
CONTINUOUS
370
    -3
390
910
  0
LAYER
  5
3B
102
{ACAD_XDICTIONARY
360
989
102
}
330
68
100
AcDbSymbolTableRecord
100
AcDbLayerTableRecord
  2
LEVEL005
 70
     0
 62
     7
  6
CONTINUOUS
370
    -3
390
910
  0
ENDTAB
  0
TABLE
  2
STYLE
  5
6
330
0
100
AcDbSymbolTable
 70
     2
  0
STYLE
  5
7
330
6
100
AcDbSymbolTableRecord
100
AcDbTextStyleTableRecord
  2
STANDARD
 70
     0
 40
0.0
 41
0.8
 50
0.0
 71
     0
 42
0.2
  3
TXT.shx
  4
BIGFONT.shx
  0
STYLE
  5
8
330
6
100
AcDbSymbolTableRecord
100
AcDbTextStyleTableRecord
  2
STANDARD1
 70
     4
 40
0.0
 41
1.0
 50
0.0
 71
     0
 42
0.2
  3
TXT
  4
BIGFONT
  0
ENDTAB
  0
TABLE
  2
VIEW
  5
2
330
0
100
AcDbSymbolTable
 70
     1
  0
ENDTAB
  0
TABLE
  2
UCS
  5
3
330
0
100
AcDbSymbolTable
 70
     0
  0
ENDTAB
  0
TABLE
  2
APPID
  5
4
330
0
100
AcDbSymbolTable
 70
     6
  0
APPID
  5
5
330
4
100
AcDbSymbolTableRecord
100
AcDbRegAppTableRecord
  2
ACAD
 70
     0
  0
APPID
  5
981
330
4
100
AcDbSymbolTableRecord
100
AcDbRegAppTableRecord
  2
ACAD_EXEMPT_FROM_CAD_STANDARDS
 70
     0
  0
APPID
  5
996
330
4
100
AcDbSymbolTableRecord
100
AcDbRegAppTableRecord
  2
ACAD_NAV_VCDISPLAY
 70
     0
  0
APPID
  5
9FF
330
4
100
AcDbSymbolTableRecord
100
AcDbRegAppTableRecord
  2
GradientColor1ACI
 70
     0
  0
APPID
  5
A00
330
4
100
AcDbSymbolTableRecord
100
AcDbRegAppTableRecord
  2
GradientColor2ACI
 70
     0
  0
APPID
  5
AE3
330
4
100
AcDbSymbolTableRecord
100
AcDbRegAppTableRecord
  2
ACAD_MLEADERVER
 70
     0
  0
ENDTAB
  0
TABLE
  2
DIMSTYLE
  5
67
330
0
100
AcDbSymbolTable
 70
     1
100
AcDbDimStyleTable
 71
     0
  0
DIMSTYLE
105
3C
330
67
100
AcDbSymbolTableRecord
100
AcDbDimStyleTableRecord
  2
STANDARD
 70
     0
340
7
  0
ENDTAB
  0
TABLE
  2
BLOCK_RECORD
  5
9
330
0
100
AcDbSymbolTable
 70
    17
  0
BLOCK_RECORD
  5
A
102
{ACAD_XDICTIONARY
360
9B7
102
}
330
9
100
AcDbSymbolTableRecord
100
AcDbBlockTableRecord
  2
*MODEL_SPACE
340
917
  0
BLOCK_RECORD
  5
B
330
9
100
AcDbSymbolTableRecord
100
AcDbBlockTableRecord
  2
*PAPER_SPACE
340
918
  0
BLOCK_RECORD
  5
C
330
9
100
AcDbSymbolTableRecord
100
AcDbBlockTableRecord
  2
_ARCHTICK
340
0
  0
BLOCK_RECORD
  5
D
330
9
100
AcDbSymbolTableRecord
100
AcDbBlockTableRecord
  2
_OBLIQUE
340
0
  0
BLOCK_RECORD
  5
E
330
9
100
AcDbSymbolTableRecord
100
AcDbBlockTableRecord
  2
_BOXBLANK
340
0
  0
BLOCK_RECORD
  5
F
330
9
100
AcDbSymbolTableRecord
100
AcDbBlockTableRecord
  2
_BOXFILLED
340
0
  0
BLOCK_RECORD
  5
10
330
9
100
AcDbSymbolTableRecord
100
AcDbBlockTableRecord
  2
_CLOSED
340
0
  0
BLOCK_RECORD
  5
11
330
9
100
AcDbSymbolTableRecord
100
AcDbBlockTableRecord
  2
_OPEN
340
0
  0
BLOCK_RECORD
  5
12
330
9
100
AcDbSymbolTableRecord
100
AcDbBlockTableRecord
  2
_OPEN30
340
0
  0
BLOCK_RECORD
  5
13
330
9
100
AcDbSymbolTableRecord
100
AcDbBlockTableRecord
  2
_OPEN90
340
0
  0
BLOCK_RECORD
  5
14
330
9
100
AcDbSymbolTableRecord
100
AcDbBlockTableRecord
  2
_CLOSEDBLANK
340
0
  0
BLOCK_RECORD
  5
15
330
9
100
AcDbSymbolTableRecord
100
AcDbBlockTableRecord
  2
_DOT
340
0
  0
BLOCK_RECORD
  5
16
330
9
100
AcDbSymbolTableRecord
100
AcDbBlockTableRecord
  2
_DOTSMALL
340
0
  0
BLOCK_RECORD
  5
17
330
9
100
AcDbSymbolTableRecord
100
AcDbBlockTableRecord
  2
_DATUMBLANK
340
0
  0
BLOCK_RECORD
  5
18
330
9
100
AcDbSymbolTableRecord
100
AcDbBlockTableRecord
  2
_DATUMFILLED
340
0
  0
BLOCK_RECORD
  5
19
330
9
100
AcDbSymbolTableRecord
100
AcDbBlockTableRecord
  2
_ORIGIN
340
0
  0
BLOCK_RECORD
  5
1A
330
9
100
AcDbSymbolTableRecord
100
AcDbBlockTableRecord
  2
_NONE
340
0
  0
BLOCK_RECORD
  5
1B
330
9
100
AcDbSymbolTableRecord
100
AcDbBlockTableRecord
  2
_DOTBLANK
340
0
  0
BLOCK_RECORD
  5
1C
330
9
100
AcDbSymbolTableRecord
100
AcDbBlockTableRecord
  2
_INTEGRAL
340
0
  0
ENDTAB
  0
ENDSEC
  0
SECTION
  2
BLOCKS
  0
BLOCK
  5
41
330
A
100
AcDbEntity
  8
0
100
AcDbBlockBegin
  2
*MODEL_SPACE
 70
     0
 10
0.0
 20
0.0
 30
0.0
  3
*MODEL_SPACE
  1

  0
ENDBLK
  5
54
330
A
100
AcDbEntity
  8
0
100
AcDbBlockEnd
  0
BLOCK
  5
42
330
B
100
AcDbEntity
 67
     1
  8
0
100
AcDbBlockBegin
  2
*PAPER_SPACE
 70
     0
 10
0.0
 20
0.0
 30
0.0
  3
*PAPER_SPACE
  1

  0
ENDBLK
  5
55
330
B
100
AcDbEntity
 67
     1
  8
0
100
AcDbBlockEnd
  0
BLOCK
  5
43
330
C
100
AcDbEntity
  8
0
100
AcDbBlockBegin
  2
_ARCHTICK
 70
     0
 10
0.0
 20
0.0
 30
0.0
  3
_ARCHTICK
  1

  0
LWPOLYLINE
  5
76
330
C
100
AcDbEntity
  8
0
  6
ByBlock
 62
     0
380
     1
100
AcDbPolyline
 90
        2
 70
     1
 43
0.15
 10
-0.5
 20
-0.5
 10
0.5
 20
0.5
  0
ENDBLK
  5
56
330
C
100
AcDbEntity
  8
0
100
AcDbBlockEnd
  0
BLOCK
  5
44
330
D
100
AcDbEntity
  8
0
100
AcDbBlockBegin
  2
_OBLIQUE
 70
     0
 10
0.0
 20
0.0
 30
0.0
  3
_OBLIQUE
  1

  0
LINE
  5
7A
330
D
100
AcDbEntity
  8
0
  6
ByBlock
 62
     0
380
     1
100
AcDbLine
 10
-0.5
 20
-0.5
 30
0.0
 11
0.5
 21
0.5
 31
0.0
  0
ENDBLK
  5
62
330
D
100
AcDbEntity
  8
0
100
AcDbBlockEnd
  0
BLOCK
  5
45
330
E
100
AcDbEntity
  8
0
100
AcDbBlockBegin
  2
_BOXBLANK
 70
     0
 10
0.0
 20
0.0
 30
0.0
  3
_BOXBLANK
  1

  0
LINE
  5
7B
330
E
100
AcDbEntity
  8
0
  6
ByBlock
 62
     0
380
     1
100
AcDbLine
 10
-0.5
 20
-0.5
 30
0.0
 11
0.5
 21
-0.5
 31
0.0
  0
LINE
  5
7C
330
E
100
AcDbEntity
  8
0
  6
ByBlock
 62
     0
380
     1
100
AcDbLine
 10
0.5
 20
-0.5
 30
0.0
 11
0.5
 21
0.5
 31
0.0
  0
LINE
  5
7D
330
E
100
AcDbEntity
  8
0
  6
ByBlock
 62
     0
380
     1
100
AcDbLine
 10
0.5
 20
0.5
 30
0.0
 11
-0.5
 21
0.5
 31
0.0
  0
LINE
  5
7E
330
E
100
AcDbEntity
  8
0
  6
ByBlock
 62
     0
380
     1
100
AcDbLine
 10
-0.5
 20
0.5
 30
0.0
 11
-0.5
 21
-0.5
 31
0.0
  0
LINE
  5
7F
330
E
100
AcDbEntity
  8
0
  6
ByBlock
 62
     0
380
     1
100
AcDbLine
 10
-0.5
 20
0.0
 30
0.0
 11
-1.0
 21
0.0
 31
0.0
  0
ENDBLK
  5
57
330
E
100
AcDbEntity
  8
0
100
AcDbBlockEnd
  0
BLOCK
  5
46
330
F
100
AcDbEntity
  8
0
100
AcDbBlockBegin
  2
_BOXFILLED
 70
     0
 10
0.0
 20
0.0
 30
0.0
  3
_BOXFILLED
  1

  0
SOLID
  5
80
330
F
100
AcDbEntity
  8
0
  6
ByBlock
 62
     0
380
     1
100
AcDbTrace
 10
-0.5
 20
0.5
 30
0.0
 11
0.5
 21
0.5
 31
0.0
 12
-0.5
 22
-0.5
 32
0.0
 13
0.5
 23
-0.5
 33
0.0
  0
LINE
  5
81
330
F
100
AcDbEntity
  8
0
  6
ByBlock
 62
     0
380
     1
100
AcDbLine
 10
-0.5
 20
0.0
 30
0.0
 11
-1.0
 21
0.0
 31
0.0
  0
ENDBLK
  5
58
330
F
100
AcDbEntity
  8
0
100
AcDbBlockEnd
  0
BLOCK
  5
47
330
10
100
AcDbEntity
  8
0
100
AcDbBlockBegin
  2
_CLOSED
 70
     0
 10
0.0
 20
0.0
 30
0.0
  3
_CLOSED
  1

  0
LINE
  5
82
330
10
100
AcDbEntity
  8
0
  6
ByBlock
 62
     0
380
     1
100
AcDbLine
 10
-1.0
 20
0.16666666666667
 30
0.0
 11
0.0
 21
0.0
 31
0.0
  0
LINE
  5
83
330
10
100
AcDbEntity
  8
0
  6
ByBlock
 62
     0
380
     1
100
AcDbLine
 10
0.0
 20
0.0
 30
0.0
 11
-1.0
 21
-0.16666666666667
 31
0.0
  0
LINE
  5
84
330
10
100
AcDbEntity
  8
0
  6
ByBlock
 62
     0
380
     1
100
AcDbLine
 10
-1.0
 20
0.16666666666667
 30
0.0
 11
-1.0
 21
-0.16666666666667
 31
0.0
  0
LINE
  5
85
330
10
100
AcDbEntity
  8
0
  6
ByBlock
 62
     0
380
     1
100
AcDbLine
 10
0.0
 20
0.0
 30
0.0
 11
-1.0
 21
0.0
 31
0.0
  0
ENDBLK
  5
59
330
10
100
AcDbEntity
  8
0
100
AcDbBlockEnd
  0
BLOCK
  5
48
330
11
100
AcDbEntity
  8
0
100
AcDbBlockBegin
  2
_OPEN
 70
     0
 10
0.0
 20
0.0
 30
0.0
  3
_OPEN
  1

  0
LINE
  5
86
330
11
100
AcDbEntity
  8
0
  6
ByBlock
 62
     0
380
     1
100
AcDbLine
 10
-1.0
 20
0.16666666666667
 30
0.0
 11
0.0
 21
0.0
 31
0.0
  0
LINE
  5
87
330
11
100
AcDbEntity
  8
0
  6
ByBlock
 62
     0
380
     1
100
AcDbLine
 10
0.0
 20
0.0
 30
0.0
 11
-1.0
 21
-0.16666666666667
 31
0.0
  0
LINE
  5
88
330
11
100
AcDbEntity
  8
0
  6
ByBlock
 62
     0
380
     1
100
AcDbLine
 10
0.0
 20
0.0
 30
0.0
 11
-1.0
 21
0.0
 31
0.0
  0
ENDBLK
  5
63
330
11
100
AcDbEntity
  8
0
100
AcDbBlockEnd
  0
BLOCK
  5
49
330
12
100
AcDbEntity
  8
0
100
AcDbBlockBegin
  2
_OPEN30
 70
     0
 10
0.0
 20
0.0
 30
0.0
  3
_OPEN30
  1

  0
LINE
  5
89
330
12
100
AcDbEntity
  8
0
  6
ByBlock
 62
     0
380
     1
100
AcDbLine
 10
-1.0
 20
0.2679491924311
 30
0.0
 11
0.0
 21
0.0
 31
0.0
  0
LINE
  5
8A
330
12
100
AcDbEntity
  8
0
  6
ByBlock
 62
     0
380
     1
100
AcDbLine
 10
0.0
 20
0.0
 30
0.0
 11
-1.0
 21
-0.2679491924311
 31
0.0
  0
LINE
  5
8B
330
12
100
AcDbEntity
  8
0
  6
ByBlock
 62
     0
380
     1
100
AcDbLine
 10
0.0
 20
0.0
 30
0.0
 11
-1.0
 21
0.0
 31
0.0
  0
ENDBLK
  5
64
330
12
100
AcDbEntity
  8
0
100
AcDbBlockEnd
  0
BLOCK
  5
4A
330
13
100
AcDbEntity
  8
0
100
AcDbBlockBegin
  2
_OPEN90
 70
     0
 10
0.0
 20
0.0
 30
0.0
  3
_OPEN90
  1

  0
LINE
  5
8C
330
13
100
AcDbEntity
  8
0
  6
ByBlock
 62
     0
380
     1
100
AcDbLine
 10
-0.5
 20
0.5
 30
0.0
 11
0.0
 21
0.0
 31
0.0
  0
LINE
  5
8D
330
13
100
AcDbEntity
  8
0
  6
ByBlock
 62
     0
380
     1
100
AcDbLine
 10
0.0
 20
0.0
 30
0.0
 11
-0.5
 21
-0.5
 31
0.0
  0
LINE
  5
8E
330
13
100
AcDbEntity
  8
0
  6
ByBlock
 62
     0
380
     1
100
AcDbLine
 10
0.0
 20
0.0
 30
0.0
 11
-1.0
 21
0.0
 31
0.0
  0
ENDBLK
  5
65
330
13
100
AcDbEntity
  8
0
100
AcDbBlockEnd
  0
BLOCK
  5
4B
330
14
100
AcDbEntity
  8
0
100
AcDbBlockBegin
  2
_CLOSEDBLANK
 70
     0
 10
0.0
 20
0.0
 30
0.0
  3
_CLOSEDBLANK
  1

  0
LINE
  5
8F
330
14
100
AcDbEntity
  8
0
  6
ByBlock
 62
     0
380
     1
100
AcDbLine
 10
-1.0
 20
0.16666666666667
 30
0.0
 11
0.0
 21
0.0
 31
0.0
  0
LINE
  5
90
330
14
100
AcDbEntity
  8
0
  6
ByBlock
 62
     0
380
     1
100
AcDbLine
 10
0.0
 20
0.0
 30
0.0
 11
-1.0
 21
-0.16666666666667
 31
0.0
  0
LINE
  5
91
330
14
100
AcDbEntity
  8
0
  6
ByBlock
 62
     0
380
     1
100
AcDbLine
 10
-1.0
 20
0.16666666666667
 30
0.0
 11
-1.0
 21
-0.16666666666667
 31
0.0
  0
ENDBLK
  5
5A
330
14
100
AcDbEntity
  8
0
100
AcDbBlockEnd
  0
BLOCK
  5
4C
330
15
100
AcDbEntity
  8
0
100
AcDbBlockBegin
  2
_DOT
 70
     0
 10
0.0
 20
0.0
 30
0.0
  3
_DOT
  1

  0
LWPOLYLINE
  5
92
330
15
100
AcDbEntity
  8
0
  6
ByBlock
 62
     0
380
     1
100
AcDbPolyline
 90
        2
 70
     1
 43
0.5
 10
-0.25
 20
0.0
 42
1.0
 10
0.25
 20
0.0
 42
1.0
  0
LINE
  5
96
330
15
100
AcDbEntity
  8
0
  6
ByBlock
 62
     0
380
     1
100
AcDbLine
 10
-0.5
 20
0.0
 30
0.0
 11
-1.0
 21
0.0
 31
0.0
  0
ENDBLK
  5
5D
330
15
100
AcDbEntity
  8
0
100
AcDbBlockEnd
  0
BLOCK
  5
4D
330
16
100
AcDbEntity
  8
0
100
AcDbBlockBegin
  2
_DOTSMALL
 70
     0
 10
0.0
 20
0.0
 30
0.0
  3
_DOTSMALL
  1

  0
LWPOLYLINE
  5
97
330
16
100
AcDbEntity
  8
0
  6
ByBlock
 62
     0
380
     1
100
AcDbPolyline
 90
        2
 70
     1
 43
0.5
 10
-0.0625
 20
0.0
 42
1.0
 10
0.0625
 20
0.0
 42
1.0
  0
ENDBLK
  5
5F
330
16
100
AcDbEntity
  8
0
100
AcDbBlockEnd
  0
BLOCK
  5
4E
330
17
100
AcDbEntity
  8
0
100
AcDbBlockBegin
  2
_DATUMBLANK
 70
     0
 10
0.0
 20
0.0
 30
0.0
  3
_DATUMBLANK
  1

  0
LINE
  5
9B
330
17
100
AcDbEntity
  8
0
  6
ByBlock
 62
     0
380
     1
100
AcDbLine
 10
0.0
 20
0.5773502700000001
 30
0.0
 11
-1.0
 21
0.0
 31
0.0
  0
LINE
  5
9C
330
17
100
AcDbEntity
  8
0
  6
ByBlock
 62
     0
380
     1
100
AcDbLine
 10
-1.0
 20
0.0
 30
0.0
 11
0.0
 21
-0.5773502700000001
 31
0.0
  0
LINE
  5
9D
330
17
100
AcDbEntity
  8
0
  6
ByBlock
 62
     0
380
     1
100
AcDbLine
 10
0.0
 20
-0.5773502700000001
 30
0.0
 11
0.0
 21
0.5773502700000001
 31
0.0
  0
ENDBLK
  5
5B
330
17
100
AcDbEntity
  8
0
100
AcDbBlockEnd
  0
BLOCK
  5
4F
330
18
100
AcDbEntity
  8
0
100
AcDbBlockBegin
  2
_DATUMFILLED
 70
     0
 10
0.0
 20
0.0
 30
0.0
  3
_DATUMFILLED
  1

  0
SOLID
  5
9E
330
18
100
AcDbEntity
  8
0
  6
ByBlock
 62
     0
380
     1
100
AcDbTrace
 10
0.0
 20
0.5773502700000001
 30
0.0
 11
-1.0
 21
0.0
 31
0.0
 12
0.0
 22
-0.5773502700000001
 32
0.0
 13
0.0
 23
-0.5773502700000001
 33
0.0
  0
ENDBLK
  5
5C
330
18
100
AcDbEntity
  8
0
100
AcDbBlockEnd
  0
BLOCK
  5
50
330
19
100
AcDbEntity
  8
0
100
AcDbBlockBegin
  2
_ORIGIN
 70
     0
 10
0.0
 20
0.0
 30
0.0
  3
_ORIGIN
  1

  0
CIRCLE
  5
9F
330
19
100
AcDbEntity
  8
0
  6
ByBlock
 62
     0
380
     1
100
AcDbCircle
 10
0.0
 20
0.0
 30
0.0
 40
0.5
  0
LINE
  5
A0
330
19
100
AcDbEntity
  8
0
  6
ByBlock
 62
     0
380
     1
100
AcDbLine
 10
0.0
 20
0.0
 30
0.0
 11
-1.0
 21
0.0
 31
0.0
  0
ENDBLK
  5
66
330
19
100
AcDbEntity
  8
0
100
AcDbBlockEnd
  0
BLOCK
  5
51
330
1A
100
AcDbEntity
  8
0
100
AcDbBlockBegin
  2
_NONE
 70
     0
 10
0.0
 20
0.0
 30
0.0
  3
_NONE
  1

  0
CIRCLE
  5
A1
330
1A
100
AcDbEntity
  8
0
  6
ByBlock
 62
     0
380
     1
100
AcDbCircle
 10
0.0
 20
0.0
 30
0.0
 40
0.25
  0
ENDBLK
  5
61
330
1A
100
AcDbEntity
  8
0
100
AcDbBlockEnd
  0
BLOCK
  5
52
330
1B
100
AcDbEntity
  8
0
100
AcDbBlockBegin
  2
_DOTBLANK
 70
     0
 10
0.0
 20
0.0
 30
0.0
  3
_DOTBLANK
  1

  0
CIRCLE
  5
A2
330
1B
100
AcDbEntity
  8
0
  6
ByBlock
 62
     0
380
     1
100
AcDbCircle
 10
0.0
 20
0.0
 30
0.0
 40
0.5
  0
LINE
  5
A3
330
1B
100
AcDbEntity
  8
0
  6
ByBlock
 62
     0
380
     1
100
AcDbLine
 10
-0.5
 20
0.0
 30
0.0
 11
-1.0
 21
0.0
 31
0.0
  0
ENDBLK
  5
5E
330
1B
100
AcDbEntity
  8
0
100
AcDbBlockEnd
  0
BLOCK
  5
53
330
1C
100
AcDbEntity
  8
0
100
AcDbBlockBegin
  2
_INTEGRAL
 70
     0
 10
0.0
 20
0.0
 30
0.0
  3
_INTEGRAL
  1

  0
ARC
  5
A4
330
1C
100
AcDbEntity
  8
0
  6
ByBlock
 62
     0
380
     1
100
AcDbCircle
 10
0.444888
 20
-0.091335
 30
0.0
 40
0.454167
100
AcDbArc
 50
102.0
 51
168.0
  0
ARC
  5
A5
330
1C
100
AcDbEntity
  8
0
  6
ByBlock
 62
     0
380
     1
100
AcDbCircle
 10
-0.444888
 20
0.091335
 30
0.0
 40
0.454167
100
AcDbArc
 50
282.0
 51
348.0
  0
ENDBLK
  5
60
330
1C
100
AcDbEntity
  8
0
100
AcDbBlockEnd
  0
ENDSEC
  0
SECTION
  2
ENTITIES
  0
TEXT
  5
A6
330
A
100
AcDbEntity
  8
LEVEL001
 62
     7
100
AcDbText
 10
326.40000000003
 20
16.375000000002
 30
0.0
 40
3.75
  1
Ａ３
 41
0.8
 72
     1
 11
329.50000000003
 21
18.250000000002
 31
0.0
100
AcDbText
 73
     2
  0
TEXT
  5
A7
330
A
100
AcDbEntity
  8
LEVEL001
 62
     7
100
AcDbText
 10
371.85508456083
 20
40.50000000000199
 30
0.0
 40
3.0
  1
平成　　年　　月　　日
 41
0.8
 72
     1
 11
387.21508456083
 21
42.000000000002
 31
0.0
100
AcDbText
 73
     2
  0
TEXT
  5
A8
330
A
100
AcDbEntity
  8
LEVEL001
 62
     7
100
AcDbText
 10
371.85508456083
 20
33.833333333335
 30
0.0
 40
3.0
  1
平成　　年　　月　　日
 41
0.8
 72
     1
 11
387.21508456083
 21
35.333333333335
 31
0.0
100
AcDbText
 73
     2
  0
LWPOLYLINE
  5
A9
330
A
100
AcDbEntity
  8
LEVEL001
  6
Continuous
 62
     3
370
    40
100
AcDbPolyline
 90
        5
 70
     0
 43
0.0
 10
15.500000000027
 20
12.000000000002
 10
404.50000000003
 20
12.000000000002
 10
404.50000000003
 20
285.0
 10
15.500000000027
 20
285.0
 10
15.500000000027
 20
12.000000000002
  0
LINE
  5
B0
330
A
100
AcDbEntity
  8
LEVEL001
  6
Continuous
 62
     3
370
    40
100
AcDbLine
 10
304.50000000003
 20
285.0
 30
0.0
 11
304.50000000003
 21
12.000000000002
 31
0.0
  0
LWPOLYLINE
  5
B1
102
{ACAD_REACTORS
330
A01
102
}
330
A
100
AcDbEntity
  8
LEVEL001
  6
Continuous
 62
     3
100
AcDbPolyline
 90
        6
 70
     0
 43
0.0
 10
344.15000000004
 20
272.075
 10
336.95000000004
 20
272.075
 10
336.95000000004
 20
261.275
 10
340.55000000004
 20
261.275
 10
340.55000000004
 20
263.075
 10
344.15000000004
 20
263.075
  0
ARC
  5
B9
330
A
100
AcDbEntity
  8
LEVEL001
  6
Continuous
 62
     3
100
AcDbCircle
 10
344.15000000004
 20
267.575
 30
0.0
 40
4.5
100
AcDbArc
 50
270.0
 51
90.0
  0
LINE
  5
BA
330
A
100
AcDbEntity
  8
LEVEL001
  6
Continuous
 62
     3
100
AcDbLine
 10
340.55000000004
 20
266.675
 30
0.0
 11
344.15000000004
 21
266.675
 31
0.0
  0
ARC
  5
BB
330
A
100
AcDbEntity
  8
LEVEL001
  6
Continuous
 62
     3
100
AcDbCircle
 10
344.15000000004
 20
267.575
 30
0.0
 40
0.9
100
AcDbArc
 50
270.0
 51
90.0
  0
LINE
  5
BC
330
A
100
AcDbEntity
  8
LEVEL001
  6
Continuous
 62
     3
100
AcDbLine
 10
344.15000000004
 20
268.475
 30
0.0
 11
340.55000000004
 21
268.475
 31
0.0
  0
LINE
  5
BD
330
A
100
AcDbEntity
  8
LEVEL001
  6
Continuous
 62
     3
100
AcDbLine
 10
340.55000000004
 20
268.475
 30
0.0
 11
340.55000000004
 21
266.675
 31
0.0
  0
LWPOLYLINE
  5
BE
102
{ACAD_REACTORS
330
A01
102
}
330
A
100
AcDbEntity
  8
LEVEL001
  6
Continuous
 62
     3
100
AcDbPolyline
 90
       26
 70
     0
 43
0.0
 10
345.95000000004
 20
261.275
 10
353.15000000004
 20
272.075
 10
362.15000000004
 20
272.075
 10
362.15000000004
 20
264.875
 10
367.55000000004
 20
264.875
 10
367.55000000004
 20
268.475
 10
363.95000000004
 20
268.475
 10
363.95000000004
 20
272.075
 10
385.55000000004
 20
272.075
 10
385.55000000004
 20
268.475
 10
378.35000000004
 20
268.475
 10
378.35000000004
 20
267.575
 10
384.65000000004
 20
267.575
 10
384.65000000004
 20
265.775
 10
378.35000000004
 20
265.775
 10
378.35000000004
 20
264.875
 10
385.55000000004
 20
264.875
 10
385.55000000004
 20
261.275
 10
374.75000000004
 20
261.275
 10
374.75000000004
 20
268.475
 10
371.15000000004
 20
268.475
 10
371.15000000004
 20
261.275
 10
358.55000000004
 20
261.275
 10
358.55000000004
 20
272.075
 10
351.35000000004
 20
261.275
 10
345.95000000004
 20
261.275
  0
LWPOLYLINE
  5
DA
102
{ACAD_REACTORS
330
A01
102
}
330
A
100
AcDbEntity
  8
LEVEL001
  6
Continuous
 62
     3
100
AcDbPolyline
 90
        4
 70
     0
 43
0.0
 10
357.35000000004
 20
268.11166923472
 10
352.79222051023
 20
261.275
 10
357.35000000004
 20
261.275
 10
357.35000000004
 20
268.11166923472
  0
ARC
  5
E0
330
A
100
AcDbEntity
  8
LEVEL001
  6
Continuous
 62
     3
100
AcDbCircle
 10
390.95000000004
 20
266.675
 30
0.0
 40
5.4
100
AcDbArc
 50
90.0
 51
270.0
  0
ARC
  5
E1
330
A
100
AcDbEntity
  8
LEVEL001
  6
Continuous
 62
     3
100
AcDbCircle
 10
390.95000000004
 20
266.675
 30
0.0
 40
1.8
100
AcDbArc
 50
90.0
 51
270.0
  0
LWPOLYLINE
  5
E2
102
{ACAD_REACTORS
330
A01
102
}
330
A
100
AcDbEntity
  8
LEVEL001
  6
Continuous
 62
     3
100
AcDbPolyline
 90
        4
 70
     0
 43
0.0
 10
390.95000000004
 20
272.075
 10
396.35000000004
 20
272.075
 10
396.35000000004
 20
268.475
 10
390.95000000004
 20
268.475
  0
LINE
  5
E8
330
A
100
AcDbEntity
  8
LEVEL001
  6
Continuous
 62
     3
100
AcDbLine
 10
336.95000000004
 20
272.075
 30
0.0
 11
336.95000000004
 21
261.275
 31
0.0
  0
LINE
  5
E9
330
A
100
AcDbEntity
  8
LEVEL001
  6
Continuous
 62
     3
100
AcDbLine
 10
336.95000000004
 20
261.275
 30
0.0
 11
340.55000000004
 21
261.275
 31
0.0
  0
LINE
  5
EA
330
A
100
AcDbEntity
  8
LEVEL001
  6
Continuous
 62
     3
100
AcDbLine
 10
340.55000000004
 20
261.275
 30
0.0
 11
340.55000000004
 21
263.075
 31
0.0
  0
LINE
  5
EB
330
A
100
AcDbEntity
  8
LEVEL001
  6
Continuous
 62
     3
100
AcDbLine
 10
340.55000000004
 20
263.075
 30
0.0
 11
344.15000000004
 21
263.075
 31
0.0
  0
ARC
  5
EC
102
{ACAD_REACTORS
330
A01
102
}
330
A
100
AcDbEntity
  8
LEVEL001
  6
Continuous
 62
     3
100
AcDbCircle
 10
344.15000000004
 20
267.575
 30
0.0
 40
4.5
100
AcDbArc
 50
270.0
 51
90.0
  0
LINE
  5
ED
102
{ACAD_REACTORS
330
A01
102
}
330
A
100
AcDbEntity
  8
LEVEL001
  6
Continuous
 62
     3
100
AcDbLine
 10
344.15000000004
 20
272.075
 30
0.0
 11
336.95000000004
 21
272.075
 31
0.0
  0
LINE
  5
EE
102
{ACAD_REACTORS
330
A01
102
}
330
A
100
AcDbEntity
  8
LEVEL001
  6
Continuous
 62
     3
100
AcDbLine
 10
340.55000000004
 20
268.475
 30
0.0
 11
340.55000000004
 21
266.675
 31
0.0
  0
LINE
  5
EF
102
{ACAD_REACTORS
330
A01
102
}
330
A
100
AcDbEntity
  8
LEVEL001
  6
Continuous
 62
     3
100
AcDbLine
 10
340.55000000004
 20
266.675
 30
0.0
 11
344.15000000004
 21
266.675
 31
0.0
  0
ARC
  5
F0
102
{ACAD_REACTORS
330
A01
102
}
330
A
100
AcDbEntity
  8
LEVEL001
  6
Continuous
 62
     3
100
AcDbCircle
 10
344.15000000004
 20
267.575
 30
0.0
 40
0.9
100
AcDbArc
 50
270.0
 51
90.0
  0
LINE
  5
F1
102
{ACAD_REACTORS
330
A01
102
}
330
A
100
AcDbEntity
  8
LEVEL001
  6
Continuous
 62
     3
100
AcDbLine
 10
344.15000000004
 20
268.475
 30
0.0
 11
340.55000000004
 21
268.475
 31
0.0
  0
LINE
  5
F2
102
{ACAD_REACTORS
330
A01
102
}
330
A
100
AcDbEntity
  8
LEVEL001
  6
Continuous
 62
     3
100
AcDbLine
 10
353.15000000004
 20
272.075
 30
0.0
 11
345.95000000004
 21
261.275
 31
0.0
  0
LINE
  5
F3
330
A
100
AcDbEntity
  8
LEVEL001
  6
Continuous
 62
     3
100
AcDbLine
 10
345.95000000004
 20
261.275
 30
0.0
 11
351.35000000004
 21
261.275
 31
0.0
  0
LINE
  5
F4
330
A
100
AcDbEntity
  8
LEVEL001
  6
Continuous
 62
     3
100
AcDbLine
 10
351.35000000004
 20
261.275
 30
0.0
 11
358.55000000004
 21
272.075
 31
0.0
  0
LINE
  5
F5
330
A
100
AcDbEntity
  8
LEVEL001
  6
Continuous
 62
     3
100
AcDbLine
 10
358.55000000004
 20
272.075
 30
0.0
 11
353.15000000004
 21
272.075
 31
0.0
  0
LINE
  5
F6
102
{ACAD_REACTORS
330
A01
102
}
330
A
100
AcDbEntity
  8
LEVEL001
  6
Continuous
 62
     3
100
AcDbLine
 10
357.35000000004
 20
261.275
 30
0.0
 11
357.35000000004
 21
268.11166923472
 31
0.0
  0
LINE
  5
F7
330
A
100
AcDbEntity
  8
LEVEL001
  6
Continuous
 62
     3
100
AcDbLine
 10
357.35000000004
 20
268.11166923472
 30
0.0
 11
352.79222051023
 21
261.275
 31
0.0
  0
LINE
  5
F8
330
A
100
AcDbEntity
  8
LEVEL001
  6
Continuous
 62
     3
100
AcDbLine
 10
352.79222051023
 20
261.275
 30
0.0
 11
357.35000000004
 21
261.275
 31
0.0
  0
LINE
  5
F9
330
A
100
AcDbEntity
  8
LEVEL001
  6
Continuous
 62
     3
100
AcDbLine
 10
358.55000000004
 20
261.275
 30
0.0
 11
371.15000000004
 21
261.275
 31
0.0
  0
LINE
  5
FA
330
A
100
AcDbEntity
  8
LEVEL001
  6
Continuous
 62
     3
100
AcDbLine
 10
371.15000000004
 20
261.275
 30
0.0
 11
371.15000000004
 21
268.475
 31
0.0
  0
LINE
  5
FB
330
A
100
AcDbEntity
  8
LEVEL001
  6
Continuous
 62
     3
100
AcDbLine
 10
371.15000000004
 20
268.475
 30
0.0
 11
374.75000000004
 21
268.475
 31
0.0
  0
LINE
  5
FC
330
A
100
AcDbEntity
  8
LEVEL001
  6
Continuous
 62
     3
100
AcDbLine
 10
374.75000000004
 20
268.475
 30
0.0
 11
374.75000000004
 21
261.275
 31
0.0
  0
LINE
  5
FD
330
A
100
AcDbEntity
  8
LEVEL001
  6
Continuous
 62
     3
100
AcDbLine
 10
374.75000000004
 20
261.275
 30
0.0
 11
385.55000000004
 21
261.275
 31
0.0
  0
LINE
  5
FE
330
A
100
AcDbEntity
  8
LEVEL001
  6
Continuous
 62
     3
100
AcDbLine
 10
385.55000000004
 20
261.275
 30
0.0
 11
385.55000000004
 21
264.875
 31
0.0
  0
LINE
  5
FF
330
A
100
AcDbEntity
  8
LEVEL001
  6
Continuous
 62
     3
100
AcDbLine
 10
385.55000000004
 20
264.875
 30
0.0
 11
378.35000000004
 21
264.875
 31
0.0
  0
LINE
  5
100
330
A
100
AcDbEntity
  8
LEVEL001
  6
Continuous
 62
     3
100
AcDbLine
 10
378.35000000004
 20
264.875
 30
0.0
 11
378.35000000004
 21
265.775
 31
0.0
  0
LINE
  5
101
330
A
100
AcDbEntity
  8
LEVEL001
  6
Continuous
 62
     3
100
AcDbLine
 10
378.35000000004
 20
265.775
 30
0.0
 11
384.65000000004
 21
265.775
 31
0.0
  0
LINE
  5
102
330
A
100
AcDbEntity
  8
LEVEL001
  6
Continuous
 62
     3
100
AcDbLine
 10
384.65000000004
 20
265.775
 30
0.0
 11
384.65000000004
 21
267.575
 31
0.0
  0
LINE
  5
103
330
A
100
AcDbEntity
  8
LEVEL001
  6
Continuous
 62
     3
100
AcDbLine
 10
384.65000000004
 20
267.575
 30
0.0
 11
378.35000000004
 21
267.575
 31
0.0
  0
LINE
  5
104
330
A
100
AcDbEntity
  8
LEVEL001
  6
Continuous
 62
     3
100
AcDbLine
 10
378.35000000004
 20
267.575
 30
0.0
 11
378.35000000004
 21
268.475
 31
0.0
  0
LINE
  5
105
330
A
100
AcDbEntity
  8
LEVEL001
  6
Continuous
 62
     3
100
AcDbLine
 10
378.35000000004
 20
268.475
 30
0.0
 11
385.55000000004
 21
268.475
 31
0.0
  0
LINE
  5
106
330
A
100
AcDbEntity
  8
LEVEL001
  6
Continuous
 62
     3
100
AcDbLine
 10
385.55000000004
 20
268.475
 30
0.0
 11
385.55000000004
 21
272.075
 31
0.0
  0
LINE
  5
107
330
A
100
AcDbEntity
  8
LEVEL001
  6
Continuous
 62
     3
100
AcDbLine
 10
385.55000000004
 20
272.075
 30
0.0
 11
363.95000000004
 21
272.075
 31
0.0
  0
LINE
  5
108
330
A
100
AcDbEntity
  8
LEVEL001
  6
Continuous
 62
     3
100
AcDbLine
 10
363.95000000004
 20
272.075
 30
0.0
 11
363.95000000004
 21
268.475
 31
0.0
  0
LINE
  5
109
330
A
100
AcDbEntity
  8
LEVEL001
  6
Continuous
 62
     3
100
AcDbLine
 10
363.95000000004
 20
268.475
 30
0.0
 11
367.55000000004
 21
268.475
 31
0.0
  0
LINE
  5
10A
330
A
100
AcDbEntity
  8
LEVEL001
  6
Continuous
 62
     3
100
AcDbLine
 10
367.55000000004
 20
268.475
 30
0.0
 11
367.55000000004
 21
264.875
 31
0.0
  0
LINE
  5
10B
102
{ACAD_REACTORS
330
A01
102
}
330
A
100
AcDbEntity
  8
LEVEL001
  6
Continuous
 62
     3
100
AcDbLine
 10
367.55000000004
 20
264.875
 30
0.0
 11
362.15000000004
 21
264.875
 31
0.0
  0
LINE
  5
10C
330
A
100
AcDbEntity
  8
LEVEL001
  6
Continuous
 62
     3
100
AcDbLine
 10
362.15000000004
 20
264.875
 30
0.0
 11
362.15000000004
 21
272.075
 31
0.0
  0
LINE
  5
10D
330
A
100
AcDbEntity
  8
LEVEL001
  6
Continuous
 62
     3
100
AcDbLine
 10
362.15000000004
 20
272.075
 30
0.0
 11
358.55000000004
 21
272.075
 31
0.0
  0
LINE
  5
10E
330
A
100
AcDbEntity
  8
LEVEL001
  6
Continuous
 62
     3
100
AcDbLine
 10
358.55000000004
 20
272.075
 30
0.0
 11
358.55000000004
 21
261.275
 31
0.0
  0
LINE
  5
10F
102
{ACAD_REACTORS
330
A01
102
}
330
A
100
AcDbEntity
  8
LEVEL001
  6
Continuous
 62
     3
100
AcDbLine
 10
390.95000000004
 20
261.275
 30
0.0
 11
396.35000000004
 21
261.275
 31
0.0
  0
LINE
  5
110
102
{ACAD_REACTORS
330
A01
102
}
330
A
100
AcDbEntity
  8
LEVEL001
  6
Continuous
 62
     3
100
AcDbLine
 10
396.35000000004
 20
261.275
 30
0.0
 11
396.35000000004
 21
264.875
 31
0.0
  0
LINE
  5
111
102
{ACAD_REACTORS
330
A01
102
}
330
A
100
AcDbEntity
  8
LEVEL001
  6
Continuous
 62
     3
100
AcDbLine
 10
396.35000000004
 20
264.875
 30
0.0
 11
390.95000000004
 21
264.875
 31
0.0
  0
ARC
  5
112
102
{ACAD_REACTORS
330
A01
102
}
330
A
100
AcDbEntity
  8
LEVEL001
  6
Continuous
 62
     3
100
AcDbCircle
 10
390.95000000004
 20
266.675
 30
0.0
 40
1.8
100
AcDbArc
 50
90.0
 51
270.0
  0
LINE
  5
113
102
{ACAD_REACTORS
330
A01
102
}
330
A
100
AcDbEntity
  8
LEVEL001
  6
Continuous
 62
     3
100
AcDbLine
 10
390.95000000004
 20
268.475
 30
0.0
 11
396.35000000004
 21
268.475
 31
0.0
  0
LINE
  5
114
330
A
100
AcDbEntity
  8
LEVEL001
  6
Continuous
 62
     3
100
AcDbLine
 10
396.35000000004
 20
268.475
 30
0.0
 11
396.35000000004
 21
272.075
 31
0.0
  0
LINE
  5
115
330
A
100
AcDbEntity
  8
LEVEL001
  6
Continuous
 62
     3
100
AcDbLine
 10
396.35000000004
 20
272.075
 30
0.0
 11
390.95000000004
 21
272.075
 31
0.0
  0
ARC
  5
116
102
{ACAD_REACTORS
330
A01
102
}
330
A
100
AcDbEntity
  8
LEVEL001
  6
Continuous
 62
     3
100
AcDbCircle
 10
390.95000000004
 20
266.675
 30
0.0
 40
5.4
100
AcDbArc
 50
90.0
 51
270.0
  0
TEXT
  5
117
330
A
100
AcDbEntity
  8
LEVEL001
 62
     3
100
AcDbText
 10
336.95000000004
 20
273.875
 30
0.0
 40
3.75
  1
ケージーパルテック株式会社
 41
0.8
100
AcDbText
  0
LWPOLYLINE
  5
118
102
{ACAD_REACTORS
330
A01
102
}
330
A
100
AcDbEntity
  8
LEVEL001
  6
Continuous
 62
     3
100
AcDbPolyline
 90
        4
 70
     0
 43
0.0
 10
333.35000000004
 20
263.675
 10
328.85000000004
 20
270.875
 10
333.35000000004
 20
270.875
 10
333.35000000004
 20
263.675
  0
LINE
  5
11E
330
A
100
AcDbEntity
  8
LEVEL001
  6
Continuous
 62
     3
100
AcDbLine
 10
328.85000000004
 20
270.875
 30
0.0
 11
333.35000000004
 21
263.675
 31
0.0
  0
LINE
  5
11F
102
{ACAD_REACTORS
330
A01
102
}
330
A
100
AcDbEntity
  8
LEVEL001
  6
Continuous
 62
     3
100
AcDbLine
 10
333.35000000004
 20
263.675
 30
0.0
 11
333.35000000004
 21
270.875
 31
0.0
  0
LINE
  5
120
330
A
100
AcDbEntity
  8
LEVEL001
  6
Continuous
 62
     3
100
AcDbLine
 10
333.35000000004
 20
270.875
 30
0.0
 11
328.85000000004
 21
270.875
 31
0.0
  0
LWPOLYLINE
  5
121
330
A
100
AcDbEntity
  8
LEVEL001
  6
Continuous
 62
     3
100
AcDbPolyline
 90
        3
 70
     0
 43
0.0
 10
319.05000000004
 20
280.475
 10
312.65000000004
 20
270.875
 10
319.05000000004
 20
261.275
  0
LWPOLYLINE
  5
126
330
A
100
AcDbEntity
  8
LEVEL001
  6
Continuous
 62
     3
100
AcDbPolyline
 90
        3
 70
     0
 43
0.0
 10
324.45000000004
 20
261.275
 10
318.05000000004
 20
270.875
 10
324.45000000004
 20
280.475
  0
LWPOLYLINE
  5
12B
330
A
100
AcDbEntity
  8
LEVEL001
  6
Continuous
 62
     3
100
AcDbPolyline
 90
        3
 70
     0
 43
0.0
 10
327.15000000004
 20
280.475
 10
320.75000000004
 20
270.875
 10
327.15000000004
 20
261.275
  0
LWPOLYLINE
  5
130
330
A
100
AcDbEntity
  8
LEVEL001
  6
Continuous
 62
     3
100
AcDbPolyline
 90
        3
 70
     0
 43
0.0
 10
332.55000000004
 20
261.275
 10
326.15000000004
 20
270.875
 10
332.55000000004
 20
280.475
  0
LWPOLYLINE
  5
135
102
{ACAD_REACTORS
330
A01
102
}
330
A
100
AcDbEntity
  8
LEVEL001
  6
Continuous
 62
     3
100
AcDbPolyline
 90
        3
 70
     0
 43
0.0
 10
319.05000000004
 20
261.275
 10
312.65000000004
 20
270.875
 10
319.05000000004
 20
280.475
  0
LINE
  5
13A
102
{ACAD_REACTORS
330
A01
102
}
330
A
100
AcDbEntity
  8
LEVEL001
  6
Continuous
 62
     3
100
AcDbLine
 10
319.05000000004
 20
280.475
 30
0.0
 11
324.45000000004
 21
280.475
 31
0.0
  0
LWPOLYLINE
  5
13B
102
{ACAD_REACTORS
330
A01
102
}
330
A
100
AcDbEntity
  8
LEVEL001
  6
Continuous
 62
     3
100
AcDbPolyline
 90
        3
 70
     0
 43
0.0
 10
324.45000000004
 20
280.475
 10
318.05000000004
 20
270.875
 10
324.45000000004
 20
261.275
  0
LINE
  5
140
102
{ACAD_REACTORS
330
A01
102
}
330
A
100
AcDbEntity
  8
LEVEL001
  6
Continuous
 62
     3
100
AcDbLine
 10
324.45000000004
 20
261.275
 30
0.0
 11
319.05000000004
 21
261.275
 31
0.0
  0
LWPOLYLINE
  5
141
102
{ACAD_REACTORS
330
A01
102
}
330
A
100
AcDbEntity
  8
LEVEL001
  6
Continuous
 62
     3
100
AcDbPolyline
 90
        3
 70
     0
 43
0.0
 10
327.15000000004
 20
261.275
 10
320.75000000004
 20
270.875
 10
327.15000000004
 20
280.475
  0
LINE
  5
146
102
{ACAD_REACTORS
330
A01
102
}
330
A
100
AcDbEntity
  8
LEVEL001
  6
Continuous
 62
     3
100
AcDbLine
 10
327.15000000004
 20
280.475
 30
0.0
 11
332.55000000004
 21
280.475
 31
0.0
  0
LWPOLYLINE
  5
147
102
{ACAD_REACTORS
330
A01
102
}
330
A
100
AcDbEntity
  8
LEVEL001
  6
Continuous
 62
     3
100
AcDbPolyline
 90
        3
 70
     0
 43
0.0
 10
332.55000000004
 20
280.475
 10
326.15000000004
 20
270.875
 10
332.55000000004
 20
261.275
  0
LINE
  5
14C
102
{ACAD_REACTORS
330
A01
102
}
330
A
100
AcDbEntity
  8
LEVEL001
  6
Continuous
 62
     3
100
AcDbLine
 10
332.55000000004
 20
261.275
 30
0.0
 11
327.15000000004
 21
261.275
 31
0.0
  0
LINE
  5
14D
330
A
100
AcDbEntity
  8
LEVEL001
  6
Continuous
 62
     3
100
AcDbLine
 10
304.50000000003
 20
256.75
 30
0.0
 11
404.50000000003
 21
256.75
 31
0.0
  0
LINE
  5
14E
330
A
100
AcDbEntity
  8
LEVEL001
  6
Continuous
 62
     3
100
AcDbLine
 10
304.50000000003
 20
236.75
 30
0.0
 11
404.50000000003
 21
236.75
 31
0.0
  0
LINE
  5
14F
330
A
100
AcDbEntity
  8
LEVEL001
  6
Continuous
 62
     3
100
AcDbLine
 10
304.50000000003
 20
216.75
 30
0.0
 11
404.50000000003
 21
216.75
 31
0.0
  0
TEXT
  5
150
330
A
100
AcDbEntity
  8
LEVEL001
 62
     3
100
AcDbText
 10
305.84000000003
 20
251.5
 30
0.0
 40
3.0
  1
商品名：
 41
0.8
 72
     1
 11
310.80000000003
 21
253.0
 31
0.0
100
AcDbText
 73
     2
  0
TEXT
  5
151
330
A
100
AcDbEntity
  8
LEVEL001
 62
     3
100
AcDbText
 10
305.78000000003
 20
231.5
 30
0.0
 40
3.0
  1
形式：
 41
0.8
 72
     1
 11
309.30000000003
 21
233.0
 31
0.0
100
AcDbText
 73
     2
  0
TEXT
  5
152
330
A
100
AcDbEntity
  8
LEVEL001
 62
     3
100
AcDbText
 10
305.78000000003
 20
211.5
 30
0.0
 40
3.0
  1
仕様：
 41
0.8
 72
     1
 11
309.30000000003
 21
213.0
 31
0.0
100
AcDbText
 73
     2
  0
LINE
  5
153
330
A
100
AcDbEntity
  8
LEVEL001
  6
Continuous
 62
     3
100
AcDbLine
 10
304.50000000003
 20
72.000000000002
 30
0.0
 11
404.50000000003
 21
72.000000000002
 31
0.0
  0
TEXT
  5
154
330
A
100
AcDbEntity
  8
LEVEL001
 62
     3
100
AcDbText
 10
305.82000000003
 20
66.750000000002
 30
0.0
 40
3.0
  1
図面名称：
 41
0.8
 72
     1
 11
312.30000000003
 21
68.250000000002
 31
0.0
100
AcDbText
 73
     2
  0
LINE
  5
155
330
A
100
AcDbEntity
  8
LEVEL001
  6
Continuous
 62
     3
100
AcDbLine
 10
304.50000000003
 20
52.000000000002
 30
0.0
 11
404.50000000003
 21
52.000000000002
 31
0.0
  0
TEXT
  5
156
330
A
100
AcDbEntity
  8
LEVEL001
 62
     3
100
AcDbText
 10
305.78000000003
 20
46.75000000000199
 30
0.0
 40
3.0
  1
縮尺：
 41
0.8
 72
     1
 11
309.30000000003
 21
48.250000000002
 31
0.0
100
AcDbText
 73
     2
  0
LINE
  5
157
330
A
100
AcDbEntity
  8
LEVEL001
  6
Continuous
 62
     3
100
AcDbLine
 10
304.50000000003
 20
32.000000000002
 30
0.0
 11
404.50000000003
 21
32.000000000002
 31
0.0
  0
TEXT
  5
158
330
A
100
AcDbEntity
  8
LEVEL001
 62
     3
100
AcDbText
 10
305.9600000000301
 20
27.221535228628
 30
0.0
 40
3.0
  1
用紙サイズ：
 41
0.8
 72
     1
 11
313.80000000003
 21
28.721535228628
 31
0.0
100
AcDbText
 73
     2
  0
TEXT
  5
159
330
A
100
AcDbEntity
  8
LEVEL001
 62
     3
100
AcDbText
 10
356.3266666666967
 20
47.266666666669
 30
0.0
 40
2.799999999999999
  1
作成日付：
 41
0.8
 72
     1
 11
362.30000000003
 21
48.666666666669
 31
0.0
100
AcDbText
 73
     2
  0
TEXT
  5
15A
330
A
100
AcDbEntity
  8
LEVEL001
 62
     3
100
AcDbText
 10
356.3266666666967
 20
40.600000000002
 30
0.0
 40
2.799999999999999
  1
変更日付：
 41
0.8
 72
     1
 11
362.30000000003
 21
42.000000000002
 31
0.0
100
AcDbText
 73
     2
  0
LINE
  5
15B
330
A
100
AcDbEntity
  8
LEVEL001
  6
Continuous
 62
     3
100
AcDbLine
 10
354.50000000003
 20
45.333333333335
 30
0.0
 11
404.50000000003
 21
45.333333333335
 31
0.0
  0
TEXT
  5
15C
330
A
100
AcDbEntity
  8
LEVEL001
 62
     3
100
AcDbText
 10
355.88000000003
 20
26.750000000002
 30
0.0
 40
3.0
  1
ファイル名：
 41
0.8
 72
     1
 11
363.80000000003
 21
28.250000000002
 31
0.0
100
AcDbText
 73
     2
  0
LINE
  5
15D
330
A
100
AcDbEntity
  8
LEVEL001
  6
Continuous
 62
     3
100
AcDbLine
 10
354.50000000003
 20
52.000000000002
 30
0.0
 11
354.50000000003
 21
12.000000000002
 31
0.0
  0
LINE
  5
15E
330
A
100
AcDbEntity
  8
LEVEL001
  6
Continuous
 62
     3
100
AcDbLine
 10
354.50000000003
 20
38.666666666669
 30
0.0
 11
404.50000000003
 21
38.666666666669
 31
0.0
  0
TEXT
  5
15F
330
A
100
AcDbEntity
  8
LEVEL001
 62
     7
100
AcDbText
 10
321.30000000003
 20
36.375000000002
 30
0.0
 40
3.75
  1
Ｓ＝１：１　
 41
0.8
 72
     1
 11
329.50000000003
 21
38.250000000002
 31
0.0
100
AcDbText
 73
     2
  0
LWPOLYLINE
  5
160
330
A
100
AcDbEntity
  8
0
  6
DOT
 62
     3
100
AcDbPolyline
 90
        5
 70
     0
 43
0.0
 10
0.0
 20
0.0
 10
420.0
 20
0.0
 10
420.0
 20
297.0
 10
0.0
 20
297.0
 10
0.0
 20
0.0
  0
CIRCLE
  5
167
330
A
100
AcDbEntity
  8
LEVEL005
  6
Continuous
 62
     8
100
AcDbCircle
 10
35.98796437889201
 20
46.86737423848799
 30
0.0
 40
0.5
  0
CIRCLE
  5
168
330
A
100
AcDbEntity
  8
LEVEL005
  6
Continuous
 62
     8
100
AcDbCircle
 10
47.862964378892
 20
44.392500504304
 30
0.0
 40
0.5
  0
CIRCLE
  5
169
330
A
100
AcDbEntity
  8
LEVEL005
  6
Continuous
 62
     8
100
AcDbCircle
 10
92.237964378892
 20
46.86737423848799
 30
0.0
 40
0.5
  0
CIRCLE
  5
16A
330
A
100
AcDbEntity
  8
LEVEL005
  6
Continuous
 62
     8
100
AcDbCircle
 10
104.11296437889
 20
44.392500504304
 30
0.0
 40
0.5
  0
CIRCLE
  5
16B
330
A
100
AcDbEntity
  8
LEVEL005
  6
Continuous
 62
     8
100
AcDbCircle
 10
148.48796437889
 20
46.86737423848799
 30
0.0
 40
0.5
  0
CIRCLE
  5
16C
330
A
100
AcDbEntity
  8
LEVEL005
  6
Continuous
 62
     8
100
AcDbCircle
 10
160.36296437889
 20
44.392500504304
 30
0.0
 40
0.5
  0
CIRCLE
  5
16D
330
A
100
AcDbEntity
  8
LEVEL005
  6
Continuous
 62
     8
100
AcDbCircle
 10
204.73796437889
 20
46.86737423848799
 30
0.0
 40
0.5
  0
CIRCLE
  5
16E
330
A
100
AcDbEntity
  8
LEVEL005
  6
Continuous
 62
     8
100
AcDbCircle
 10
216.61296437889
 20
44.392500504304
 30
0.0
 40
0.5
  0
CIRCLE
  5
16F
330
A
100
AcDbEntity
  8
LEVEL005
  6
Continuous
 62
     8
100
AcDbCircle
 10
260.98796437889
 20
46.86737423848799
 30
0.0
 40
0.5
  0
CIRCLE
  5
170
330
A
100
AcDbEntity
  8
LEVEL005
  6
Continuous
 62
     8
100
AcDbCircle
 10
272.86296437889
 20
44.392500504304
 30
0.0
 40
0.5
  0
CIRCLE
  5
171
330
A
100
AcDbEntity
  8
LEVEL005
  6
Continuous
 62
     8
100
AcDbCircle
 10
35.98796437889201
 20
93.08231028008298
 30
0.0
 40
0.5
  0
CIRCLE
  5
172
330
A
100
AcDbEntity
  8
LEVEL005
  6
Continuous
 62
     8
100
AcDbCircle
 10
41.612964378892
 20
90.607436545899
 30
0.0
 40
0.5
  0
CIRCLE
  5
173
330
A
100
AcDbEntity
  8
LEVEL005
  6
Continuous
 62
     8
100
AcDbCircle
 10
92.237964378892
 20
93.08231028008298
 30
0.0
 40
0.5
  0
CIRCLE
  5
174
330
A
100
AcDbEntity
  8
LEVEL005
  6
Continuous
 62
     8
100
AcDbCircle
 10
97.862964378892
 20
90.607436545899
 30
0.0
 40
0.5
  0
CIRCLE
  5
175
330
A
100
AcDbEntity
  8
LEVEL005
  6
Continuous
 62
     8
100
AcDbCircle
 10
148.48796437889
 20
93.08231028008298
 30
0.0
 40
0.5
  0
CIRCLE
  5
176
330
A
100
AcDbEntity
  8
LEVEL005
  6
Continuous
 62
     8
100
AcDbCircle
 10
154.11296437889
 20
90.607436545899
 30
0.0
 40
0.5
  0
CIRCLE
  5
177
330
A
100
AcDbEntity
  8
LEVEL005
  6
Continuous
 62
     8
100
AcDbCircle
 10
204.73796437889
 20
93.08231028008298
 30
0.0
 40
0.5
  0
CIRCLE
  5
178
330
A
100
AcDbEntity
  8
LEVEL005
  6
Continuous
 62
     8
100
AcDbCircle
 10
210.36296437889
 20
90.607436545899
 30
0.0
 40
0.5
  0
CIRCLE
  5
179
330
A
100
AcDbEntity
  8
LEVEL005
  6
Continuous
 62
     8
100
AcDbCircle
 10
35.98796437889201
 20
140.42635617092
 30
0.0
 40
0.5
  0
CIRCLE
  5
17A
330
A
100
AcDbEntity
  8
LEVEL005
  6
Continuous
 62
     8
100
AcDbCircle
 10
41.612964378892
 20
137.95148243673
 30
0.0
 40
0.5
  0
CIRCLE
  5
17B
330
A
100
AcDbEntity
  8
LEVEL005
  6
Continuous
 62
     8
100
AcDbCircle
 10
89.112964378892
 20
140.42635617092
 30
0.0
 40
0.5
  0
CIRCLE
  5
17C
330
A
100
AcDbEntity
  8
LEVEL005
  6
Continuous
 62
     8
100
AcDbCircle
 10
94.737964378892
 20
137.95148243673
 30
0.0
 40
0.5
  0
CIRCLE
  5
17D
330
A
100
AcDbEntity
  8
LEVEL005
  6
Continuous
 62
     8
100
AcDbCircle
 10
142.23796437889
 20
140.42635617092
 30
0.0
 40
0.5
  0
CIRCLE
  5
17E
330
A
100
AcDbEntity
  8
LEVEL005
  6
Continuous
 62
     8
100
AcDbCircle
 10
147.86296437889
 20
137.95148243673
 30
0.0
 40
0.5
  0
TEXT
  5
17F
330
A
100
AcDbEntity
  8
LEVEL001
 62
     8
100
AcDbText
 10
22.921985815603
 20
158.3917075832
 30
0.0
 40
4.0
  1
･ＣＰＬ３５１０用芯金
 41
0.8
 11
22.921985815603
 21
160.3917075832
 31
0.0
100
AcDbText
 73
     2
  0
TEXT
  5
180
330
A
100
AcDbEntity
  8
LEVEL001
 62
     8
100
AcDbText
 10
22.921985815603
 20
111.04766169236
 30
0.0
 40
4.0
  1
･ＣＰＬ３５１５用芯金
 41
0.8
 11
22.921985815603
 21
113.04766169236
 31
0.0
100
AcDbText
 73
     2
  0
TEXT
  5
181
330
A
100
AcDbEntity
  8
LEVEL001
 62
     8
100
AcDbText
 10
22.921985815603
 20
64.83272565076901
 30
0.0
 40
4.0
  1
･ＣＰＬ３５２０用芯金
 41
0.8
 11
22.921985815603
 21
66.83272565076901
 31
0.0
100
AcDbText
 73
     2
  0
TEXT
  5
182
330
A
100
AcDbEntity
  8
LEVEL001
 62
     8
100
AcDbText
 10
310.22087571478
 20
73.71475621830199
 30
0.0
 40
4.0
  1
※本製品は予告無しに変更する事があります。
 41
0.8
 72
     1
 11
349.26087571478
 21
75.714756218302
 31
0.0
100
AcDbText
 73
     2
  0
TEXT
  5
183
330
A
100
AcDbEntity
  8
LEVEL001
 62
     8
100
AcDbText
 10
341.2466666666967
 20
223.58333333334
 30
0.0
 40
3.5
  1
ＣＰＬ３５タイプ
 41
0.8
 72
     1
 11
354.50000000003
 21
225.33333333334
 31
0.0
100
AcDbText
 73
     2
  0
TEXT
  5
184
330
A
100
AcDbEntity
  8
LEVEL001
 62
     8
100
AcDbText
 10
320.33487664471
 20
240.45460526316
 30
0.0
 40
4.5
  1
コーナープロテクター(軟質タイプ)
 41
0.8
 72
     1
 11
354.77487664471
 21
242.70460526316
 31
0.0
100
AcDbText
 73
     2
  0
TEXT
  5
185
330
A
100
AcDbEntity
  8
LEVEL001
 62
     7
100
AcDbText
 10
343.40000000003
 20
56.375000000002
 30
0.0
 40
3.75
  1
平面図･断面図
 41
0.8
 72
     1
 11
354.50000000003
 21
58.250000000002
 31
0.0
100
AcDbText
 73
     2
  0
TEXT
  5
186
330
A
100
AcDbEntity
  8
LEVEL001
 62
     7
100
AcDbText
 10
371.85508456083
 20
47.166666666669
 30
0.0
 40
3.0
  1
平成２６年１０月３１日
 41
0.8
 72
     1
 11
387.21508456083
 21
48.666666666669
 31
0.0
100
AcDbText
 73
     2
  0
LINE
  5
187
330
A
100
AcDbEntity
  8
LEVEL001
  6
DASHDOT
 62
     6
370
    15
100
AcDbLine
 10
154.71485388024
 20
224.36138725451
 30
0.0
 11
199.3269651732
 21
268.97349854747
 31
0.0
  0
TEXT
  5
188
330
A
100
AcDbEntity
  8
LEVEL001
 62
     8
100
AcDbText
 10
49.016639388982
 20
188.61101637229
 30
0.0
 40
4.0
  1
ＣＰＬ３５断面図
 41
0.8
100
AcDbText
  0
TEXT
  5
189
330
A
100
AcDbEntity
  8
LEVEL001
 62
     8
100
AcDbText
 10
49.016639388982
 20
183.27768303896
 30
0.0
 40
4.0
  1
　(Ｓ＝１：１)
 41
0.8
100
AcDbText
  0
LINE
  5
18A
330
A
100
AcDbEntity
  8
LEVEL001
  6
DASHDOT
 62
     6
370
    15
100
AcDbLine
 10
65.726268412402
 20
261.09697217676
 30
0.0
 11
65.726268412402
 21
220.04950900164
 31
0.0
  0
TEXT
  5
18B
330
A
100
AcDbEntity
  8
LEVEL001
 62
     8
100
AcDbText
 10
139.84885861068
 20
188.61101637229
 30
0.0
 40
4.0
  1
ＣＰ３５(キャップ)断面図
 41
0.8
100
AcDbText
  0
TEXT
  5
18C
330
A
100
AcDbEntity
  8
LEVEL001
 62
     8
100
AcDbText
 10
139.84885861068
 20
183.27768303896
 30
0.0
 40
4.0
  1
　　　(Ｓ＝１：１)
 41
0.8
100
AcDbText
  0
TEXT
  5
39D
330
A
100
AcDbEntity
  8
LEVEL001
 62
     7
100
AcDbText
 10
371.30000000003
 20
16.375000000002
 30
0.0
 40
3.75
  1
ＣＰＬ－１
 41
0.8
 72
     1
 11
379.50000000003
 21
18.250000000002
 31
0.0
100
AcDbText
 73
     2
  0
TEXT
  5
3A2
330
A
100
AcDbEntity
  8
LEVEL001
 62
     8
100
AcDbText
 10
314.50000000003
 20
485.7499999999999
 30
0.0
 40
3.0
  1
　
100
AcDbText
  0
TEXT
  5
3A4
330
A
100
AcDbEntity
  8
LEVEL001
 62
     8
100
AcDbText
 10
314.50000000003
 20
477.7499999999999
 30
0.0
 40
3.0
  1
　
100
AcDbText
  0
TEXT
  5
3AC
330
A
100
AcDbEntity
  8
LEVEL001
 62
     8
100
AcDbText
 10
314.50000000003
 20
445.75
 30
0.0
 40
3.0
  1

 41
0.5
100
AcDbText
  0
TEXT
  5
3B0
330
A
100
AcDbEntity
  8
LEVEL001
 62
     8
100
AcDbText
 10
314.50000000003
 20
204.75
 30
0.0
 40
3.0
  1
●ＣＰＬ３５
 41
0.8
100
AcDbText
  0
TEXT
  5
3B1
330
A
100
AcDbEntity
  8
LEVEL001
 62
     8
100
AcDbText
 10
314.50000000003
 20
200.75
 30
0.0
 40
3.0
  1
　材質：本体－特殊樹脂
 41
0.8
100
AcDbText
  0
TEXT
  5
3B2
330
A
100
AcDbEntity
  8
LEVEL001
 62
     8
100
AcDbText
 10
314.50000000003
 20
196.75
 30
0.0
 40
3.0
  1
　　　　芯材－アルミ(Ｂ２シルバー)
 41
0.8
100
AcDbText
  0
TEXT
  5
3B3
330
A
100
AcDbEntity
  8
LEVEL001
 62
     8
100
AcDbText
 10
314.50000000003
 20
192.75
 30
0.0
 40
3.0
  1
　
100
AcDbText
  0
TEXT
  5
3B4
330
A
100
AcDbEntity
  8
LEVEL001
 62
     8
100
AcDbText
 10
314.50000000003
 20
188.75
 30
0.0
 40
3.0
  1
　長さ：１０００m/m･１５００m/m･２０００m/m
 41
0.8
100
AcDbText
  0
TEXT
  5
3B5
330
A
100
AcDbEntity
  8
LEVEL001
 62
     8
100
AcDbText
 10
314.50000000003
 20
184.75
 30
0.0
 40
3.0
  1
　
100
AcDbText
  0
TEXT
  5
3B6
330
A
100
AcDbEntity
  8
LEVEL001
 62
     8
100
AcDbText
 10
314.50000000003
 20
180.75
 30
0.0
 40
3.0
  1
　仕上：(標準色４色)
 41
0.8
100
AcDbText
  0
TEXT
  5
3B7
330
A
100
AcDbEntity
  8
LEVEL001
 62
     8
100
AcDbText
 10
314.50000000003
 20
176.75
 30
0.0
 40
3.0
  1
　　　　Ｐ０１－パールグレイ　　(白鼠)　(Ｐ)
 41
0.8
100
AcDbText
  0
TEXT
  5
3B8
330
A
100
AcDbEntity
  8
LEVEL001
 62
     8
100
AcDbText
 10
314.50000000003
 20
172.75
 30
0.0
 40
3.0
  1
　　　　Ｐ０３－グレイ　　　　　(鼠)　　(Ｇ)
 41
0.8
100
AcDbText
  0
TEXT
  5
3B9
330
A
100
AcDbEntity
  8
LEVEL001
 62
     8
100
AcDbText
 10
314.50000000003
 20
168.75
 30
0.0
 40
3.0
  1
　　　　Ｐ０７－ダークアイボリー(薄黄)　(ＤＩ)
 41
0.8
100
AcDbText
  0
TEXT
  5
3BA
330
A
100
AcDbEntity
  8
LEVEL001
 62
     8
100
AcDbText
 10
314.50000000003
 20
164.75
 30
0.0
 40
3.0
  1
　　　　Ｐ１２－イエロー　　　　(黄)　　(Ｙ)
 41
0.8
100
AcDbText
  0
TEXT
  5
3BB
330
A
100
AcDbEntity
  8
LEVEL001
 62
     8
100
AcDbText
 10
314.50000000003
 20
160.75
 30
0.0
 40
3.0
  1

 41
0.5
100
AcDbText
  0
TEXT
  5
3BC
330
A
100
AcDbEntity
  8
LEVEL001
 62
     8
100
AcDbText
 10
314.50000000003
 20
156.75
 30
0.0
 40
3.0
  1
●ＣＰ３５(キャップ)
 41
0.8
100
AcDbText
  0
TEXT
  5
3BD
330
A
100
AcDbEntity
  8
LEVEL001
 62
     8
100
AcDbText
 10
314.50000000003
 20
152.75
 30
0.0
 40
3.0
  1
　材質：特殊樹脂
 41
0.8
100
AcDbText
  0
TEXT
  5
3BE
330
A
100
AcDbEntity
  8
LEVEL001
 62
     8
100
AcDbText
 10
314.50000000003
 20
148.75
 30
0.0
 40
3.0
  1
　適応：ＣＰＬ３５用　　　
 41
0.8
100
AcDbText
  0
TEXT
  5
488
330
A
100
AcDbEntity
  8
LEVEL001
 62
     8
100
AcDbText
 10
314.50000000003
 20
786.75
 30
0.0
 40
3.0
  1
              
 41
0.5
100
AcDbText
  0
TEXT
  5
48A
330
A
100
AcDbEntity
  8
LEVEL001
 62
     8
100
AcDbText
 10
314.50000000003
 20
778.75
 30
0.0
 40
3.0
  1
　
100
AcDbText
  0
TEXT
  5
48F
330
A
100
AcDbEntity
  8
LEVEL001
 62
     8
100
AcDbText
 10
314.50000000003
 20
758.75
 30
0.0
 40
3.0
  1

 41
0.5
100
AcDbText
  0
LWPOLYLINE
  5
494
330
A
100
AcDbEntity
  8
LEVEL005
  6
Continuous
 62
     2
100
AcDbPolyline
 90
        5
 70
     0
 43
0.0
 10
279.11296437889
 20
43.182248401345
 10
279.11296437889
 20
48.077626341467
 10
29.737964378892
 20
48.077626341467
 10
29.737964378892
 20
43.182248401345
 10
279.11296437889
 20
43.182248401345
  0
LINE
  5
49B
330
A
100
AcDbEntity
  8
LEVEL005
  6
Continuous
 62
     2
100
AcDbLine
 10
279.11296437889
 20
45.62993737139599
 30
0.0
 11
29.737964378892
 21
45.62993737139599
 31
0.0
  0
LWPOLYLINE
  5
49C
330
A
100
AcDbEntity
  8
LEVEL005
  6
Continuous
 62
     2
100
AcDbPolyline
 90
        5
 70
     0
 43
0.0
 10
26.060588808265
 20
48.020814653682
 10
26.186045221751
 20
47.309315976724
 10
27.865423827059
 20
45.62993737139599
 10
26.186045221731
 20
43.950558766087
 10
26.060588808245
 20
43.23906008913
  0
LWPOLYLINE
  5
4A3
330
A
100
AcDbEntity
  8
LEVEL005
  6
Continuous
 62
     2
100
AcDbPolyline
 90
        5
 70
     0
 43
0.0
 10
25.925177742209
 20
43.262936713559
 10
26.058162426457
 20
44.01713033562
 10
27.670969462233
 20
45.62993737139599
 10
26.058162426503
 20
47.242744407125
 10
25.925177742243
 20
47.99693802925499
  0
ARC
  5
4AA
330
A
100
AcDbEntity
  8
LEVEL005
  6
Continuous
 62
     2
100
AcDbCircle
 10
25.992883275254
 20
48.008876341468
 30
0.0
 40
0.06875
100
AcDbArc
 50
9.999999999992699
 51
189.99999999999
  0
ARC
  5
4AB
330
A
100
AcDbEntity
  8
LEVEL005
  6
Continuous
 62
     2
100
AcDbCircle
 10
25.992883275227
 20
43.250998401344
 30
0.0
 40
0.06875
100
AcDbArc
 50
169.99999999997
 51
349.99999999997
  0
LINE
  5
4AC
330
A
100
AcDbEntity
  8
LEVEL005
  6
Continuous
 62
     2
100
AcDbLine
 10
26.804763655278
 20
46.69059754318999
 30
0.0
 11
26.707536472857
 21
46.593370360771
 31
0.0
  0
LINE
  5
4AD
330
A
100
AcDbEntity
  8
LEVEL005
  6
Continuous
 62
     2
100
AcDbLine
 10
26.451210264687
 20
47.04415093378599
 30
0.0
 11
26.353983082264
 21
46.946923751364
 31
0.0
  0
LINE
  5
4AE
330
A
100
AcDbEntity
  8
LEVEL005
  6
Continuous
 62
     2
100
AcDbLine
 10
26.804763655278
 20
44.569277199602
 30
0.0
 11
26.707536472857
 21
44.666504382021
 31
0.0
  0
LINE
  5
4AF
330
A
100
AcDbEntity
  8
LEVEL005
  6
Continuous
 62
     2
100
AcDbLine
 10
26.451210264687
 20
44.215723809006
 30
0.0
 11
26.353983082264
 21
44.312950991427
 31
0.0
  0
LWPOLYLINE
  5
4B0
330
A
100
AcDbEntity
  8
LEVEL005
  6
Continuous
 62
     2
100
AcDbPolyline
 90
        5
 70
     0
 43
0.0
 10
29.737964378892
 20
94.292562383062
 10
29.737964378892
 20
89.39718444293999
 10
216.61296437889
 20
89.39718444293999
 10
216.61296437889
 20
94.292562383062
 10
29.737964378892
 20
94.292562383062
  0
LINE
  5
4B7
330
A
100
AcDbEntity
  8
LEVEL005
  6
Continuous
 62
     2
100
AcDbLine
 10
216.61296437889
 20
91.84487341299101
 30
0.0
 11
29.737964378892
 21
91.84487341299101
 31
0.0
  0
LWPOLYLINE
  5
4B8
330
A
100
AcDbEntity
  8
LEVEL005
  6
Continuous
 62
     2
100
AcDbPolyline
 90
        5
 70
     0
 43
0.0
 10
26.060588808265
 20
94.235750695277
 10
26.186045221751
 20
93.52425201832
 10
27.865423827059
 20
91.84487341299101
 10
26.186045221731
 20
90.16549480768199
 10
26.060588808245
 20
89.45399613072501
  0
LWPOLYLINE
  5
4BF
330
A
100
AcDbEntity
  8
LEVEL005
  6
Continuous
 62
     2
100
AcDbPolyline
 90
        5
 70
     0
 43
0.0
 10
25.925177742209
 20
89.477872755154
 10
26.058162426457
 20
90.232066377215
 10
27.670969462233
 20
91.84487341299101
 10
26.058162426503
 20
93.45768044872
 10
25.925177742243
 20
94.21187407085099
  0
ARC
  5
4C6
330
A
100
AcDbEntity
  8
LEVEL005
  6
Continuous
 62
     2
100
AcDbCircle
 10
25.992883275254
 20
94.223812383064
 30
0.0
 40
0.06875
100
AcDbArc
 50
9.999999999992699
 51
189.99999999999
  0
ARC
  5
4C7
330
A
100
AcDbEntity
  8
LEVEL005
  6
Continuous
 62
     2
100
AcDbCircle
 10
25.992883275227
 20
89.46593444294
 30
0.0
 40
0.06875
100
AcDbArc
 50
169.99999999998
 51
349.99999999999
  0
LINE
  5
4C8
330
A
100
AcDbEntity
  8
LEVEL005
  6
Continuous
 62
     2
100
AcDbLine
 10
26.804763655278
 20
92.905533584786
 30
0.0
 11
26.707536472857
 21
92.80830640236599
 31
0.0
  0
LINE
  5
4C9
330
A
100
AcDbEntity
  8
LEVEL005
  6
Continuous
 62
     2
100
AcDbLine
 10
26.451210264687
 20
93.259086975381
 30
0.0
 11
26.353983082264
 21
93.16185979295999
 31
0.0
  0
LINE
  5
4CA
330
A
100
AcDbEntity
  8
LEVEL005
  6
Continuous
 62
     2
100
AcDbLine
 10
26.804763655278
 20
90.784213241197
 30
0.0
 11
26.707536472857
 21
90.881440423616
 31
0.0
  0
LINE
  5
4CB
330
A
100
AcDbEntity
  8
LEVEL005
  6
Continuous
 62
     2
100
AcDbLine
 10
26.451210264687
 20
90.43065985060101
 30
0.0
 11
26.353983082264
 21
90.52788703302301
 31
0.0
  0
LINE
  5
4CC
330
A
100
AcDbEntity
  8
LEVEL005
  6
Continuous
 62
     2
100
AcDbLine
 10
154.11296437889
 20
139.18891930382
 30
0.0
 11
29.737964378892
 21
139.18891930382
 31
0.0
  0
LWPOLYLINE
  5
4CD
330
A
100
AcDbEntity
  8
LEVEL005
  6
Continuous
 62
     2
100
AcDbPolyline
 90
        5
 70
     0
 43
0.0
 10
29.737964378892
 20
136.74123033377
 10
154.11296437889
 20
136.74123033377
 10
154.11296437889
 20
141.63660827389
 10
29.737964378892
 20
141.63660827389
 10
29.737964378892
 20
136.74123033377
  0
LWPOLYLINE
  5
4D4
330
A
100
AcDbEntity
  8
LEVEL005
  6
Continuous
 62
     2
100
AcDbPolyline
 90
        5
 70
     0
 43
0.0
 10
26.060588808265
 20
141.57979658611
 10
26.186045221751
 20
140.86829790915
 10
27.865423827059
 20
139.18891930382
 10
26.186045221731
 20
137.50954069852
 10
26.060588808245
 20
136.79804202156
  0
LWPOLYLINE
  5
4DB
330
A
100
AcDbEntity
  8
LEVEL005
  6
Continuous
 62
     2
100
AcDbPolyline
 90
        5
 70
     0
 43
0.0
 10
25.925177742209
 20
136.82191864599
 10
26.058162426457
 20
137.57611226805
 10
27.670969462233
 20
139.18891930382
 10
26.058162426503
 20
140.80172633955
 10
25.925177742243
 20
141.55591996168
  0
ARC
  5
4E2
330
A
100
AcDbEntity
  8
LEVEL005
  6
Continuous
 62
     2
100
AcDbCircle
 10
25.992883275254
 20
141.5678582739
 30
0.0
 40
0.06875
100
AcDbArc
 50
10.000000000004
 51
189.9999999999799
  0
ARC
  5
4E3
330
A
100
AcDbEntity
  8
LEVEL005
  6
Continuous
 62
     2
100
AcDbCircle
 10
25.992883275227
 20
136.80998033377
 30
0.0
 40
0.06875
100
AcDbArc
 50
169.99999999996
 51
349.99999999998
  0
LINE
  5
4E4
330
A
100
AcDbEntity
  8
LEVEL005
  6
Continuous
 62
     2
100
AcDbLine
 10
26.804763655278
 20
140.24957947562
 30
0.0
 11
26.707536472857
 21
140.1523522932
 31
0.0
  0
LINE
  5
4E5
330
A
100
AcDbEntity
  8
LEVEL005
  6
Continuous
 62
     2
100
AcDbLine
 10
26.451210264687
 20
140.60313286621
 30
0.0
 11
26.353983082264
 21
140.50590568379
 31
0.0
  0
LINE
  5
4E6
330
A
100
AcDbEntity
  8
LEVEL005
  6
Continuous
 62
     2
100
AcDbLine
 10
26.804763655278
 20
138.12825913203
 30
0.0
 11
26.707536472857
 21
138.22548631445
 31
0.0
  0
LINE
  5
4E7
330
A
100
AcDbEntity
  8
LEVEL005
  6
Continuous
 62
     2
100
AcDbLine
 10
26.451210264687
 20
137.77470574143
 30
0.0
 11
26.353983082264
 21
137.87193292386
 31
0.0
  0
TEXT
  5
4F2
330
A
100
AcDbEntity
  8
LEVEL001
 62
     8
100
AcDbText
 10
119.0103873431566
 20
22.604200763775
 30
0.0
 40
4.0
  1
ＣＰＬ３５用芯材ピッチ図(Ｓ＝１：８)
 41
0.8
 72
     1
 11
153.46372067649
 21
24.604200763775
 31
0.0
100
AcDbText
 73
     2
  0
LINE
  5
599
330
A
100
AcDbEntity
  8
LEVEL001
  6
Continuous
 62
     3
370
    30
100
AcDbLine
 10
142.55726702436
 20
239.82278044369
 30
0.0
 11
142.55726702436
 21
236.82278044369
 31
0.0
  0
LINE
  5
59A
330
A
100
AcDbEntity
  8
LEVEL001
  6
Continuous
 62
     3
370
    30
100
AcDbLine
 10
143.05726702436
 20
237.32278044369
 30
0.0
 11
143.05726702436
 21
239.32278044369
 31
0.0
  0
LINE
  5
647
330
A
100
AcDbEntity
  8
LEVEL001
  6
Continuous
 62
     1
100
AcDbLine
 10
52.291239569839
 20
232.30669152051
 30
0.0
 11
46.599250154186
 21
231.30304021262
 31
0.0
  0
LINE
  5
648
330
A
100
AcDbEntity
  8
LEVEL001
  6
Continuous
 62
     3
370
    30
100
AcDbLine
 10
52.823812126294
 20
231.28362915832
 30
0.0
 11
46.79026314962
 21
230.21975168431
 31
0.0
  0
LINE
  5
649
330
A
100
AcDbEntity
  8
LEVEL001
  6
Continuous
 62
     1
100
AcDbLine
 10
79.161297255194
 20
232.30669152074
 30
0.0
 11
84.85328667086399
 21
231.30304021295
 31
0.0
  0
LINE
  5
64A
330
A
100
AcDbEntity
  8
LEVEL001
  6
Continuous
 62
     3
370
    30
100
AcDbLine
 10
78.628724698756
 20
231.28362915854
 30
0.0
 11
84.66227367544801
 21
230.21975168463
 31
0.0
  0
LWPOLYLINE
  5
64B
330
A
100
AcDbEntity
  8
LEVEL001
  6
Continuous
 62
     1
100
AcDbPolyline
 90
        3
 70
     0
 43
0.0
 10
78.628724698756
 20
231.28362915854
 10
65.726268412415
 20
244.18608544442
 10
52.823812126294
 20
231.28362915832
  0
ARC
  5
650
330
A
100
AcDbEntity
  8
LEVEL001
  6
Continuous
 62
     3
370
    30
100
AcDbCircle
 10
84.75778017315599
 20
230.76139594879
 30
0.0
 40
0.55
100
AcDbArc
 50
260.00000000095
 51
80.00000000095401
  0
ARC
  5
651
330
A
100
AcDbEntity
  8
LEVEL001
  6
Continuous
 62
     3
370
    30
100
AcDbCircle
 10
46.694756651903
 20
230.76139594847
 30
0.0
 40
0.55
100
AcDbArc
 50
100.0
 51
280.0
  0
LINE
  5
652
330
A
100
AcDbEntity
  8
LEVEL001
  6
Continuous
 62
     1
100
AcDbLine
 10
79.16129725494601
 20
232.3066915205
 30
0.0
 11
66.079821802994
 21
245.38816697245
 31
0.0
  0
LINE
  5
653
330
A
100
AcDbEntity
  8
LEVEL001
  6
Continuous
 62
     1
100
AcDbLine
 10
65.372715021808
 20
245.38816697245
 30
0.0
 11
52.291239569839
 21
232.30669152051
 31
0.0
  0
ARC
  5
654
330
A
100
AcDbEntity
  8
LEVEL001
  6
Continuous
 62
     1
100
AcDbCircle
 10
65.726268412401
 20
245.03461358185
 30
0.0
 40
0.5
100
AcDbArc
 50
44.99999999999
 51
134.99999999987
  0
ARC
  5
655
330
A
100
AcDbEntity
  8
LEVEL001
  6
Continuous
 62
     3
370
    30
100
AcDbCircle
 10
187.02624706929
 20
256.67278044368
 30
0.0
 40
6.25
100
AcDbArc
 50
0.0
 51
90.000000000849
  0
ARC
  5
656
330
A
100
AcDbEntity
  8
LEVEL001
  6
Continuous
 62
     3
370
    30
100
AcDbCircle
 10
187.02624706919
 20
256.67278044368
 30
0.0
 40
4.75
100
AcDbArc
 50
0.0
 51
89.999999999972
  0
ARC
  5
657
330
A
100
AcDbEntity
  8
LEVEL001
  6
Continuous
 62
     3
370
    30
100
AcDbCircle
 10
190.02624706921
 20
226.37278044358
 30
0.0
 40
3.25
100
AcDbArc
 50
270.0
 51
0.0
  0
LINE
  5
658
330
A
100
AcDbEntity
  8
LEVEL001
  6
Continuous
 62
     3
370
    30
100
AcDbLine
 10
183.27624706921
 20
223.12278044369
 30
0.0
 11
190.02624706921
 21
223.12278044369
 31
0.0
  0
LINE
  5
659
330
A
100
AcDbEntity
  8
LEVEL001
  6
Continuous
 62
     3
370
    30
100
AcDbLine
 10
183.27624706921
 20
224.82278044369
 30
0.0
 11
190.15124706921
 21
224.82278044369
 31
0.0
  0
ARC
  5
65A
330
A
100
AcDbEntity
  8
LEVEL001
  6
Continuous
 62
     3
370
    30
100
AcDbCircle
 10
190.15124706921
 20
226.44778044369
 30
0.0
 40
1.625
100
AcDbArc
 50
270.0
 51
0.0
  0
CIRCLE
  5
65B
330
A
100
AcDbEntity
  8
LEVEL001
  6
Continuous
 62
     3
370
    30
100
AcDbCircle
 10
185.77624706924
 20
238.32278044369
 30
0.0
 40
1.5
  0
CIRCLE
  5
65C
330
A
100
AcDbEntity
  8
LEVEL001
  6
Continuous
 62
     3
370
    30
100
AcDbCircle
 10
185.77624706924
 20
238.32278044369
 30
0.0
 40
1.0
  0
LWPOLYLINE
  5
65D
330
A
100
AcDbEntity
  8
LEVEL001
  6
Continuous
 62
     3
370
    30
100
AcDbPolyline
 90
        5
 70
     0
 43
0.0
 10
130.55726702436
 20
262.92278044369
 10
130.55726702436
 20
223.12278044369
 10
145.55726702436
 20
223.12278044369
 10
145.55726702436
 20
262.92278044369
 10
130.55726702436
 20
262.92278044369
  0
LINE
  5
664
330
A
100
AcDbEntity
  8
LEVEL001
  6
Continuous
 62
     3
370
    30
100
AcDbLine
 10
130.55726702436
 20
252.92278044369
 30
0.0
 11
145.55726702436
 21
252.92278044369
 31
0.0
  0
LWPOLYLINE
  5
665
330
A
100
AcDbEntity
  8
LEVEL001
  6
Continuous
 62
     3
370
    30
100
AcDbPolyline
 90
        3
 70
     0
 43
0.0
 10
133.55726702436
 20
252.92278044369
 10
133.55726702436
 20
224.82278044369
 10
145.55726702436
 20
224.82278044369
  0
LWPOLYLINE
  5
66A
330
A
100
AcDbEntity
  8
LEVEL001
  6
Continuous
 62
     3
370
    30
100
AcDbPolyline
 90
        4
 70
     0
 43
0.0
 10
133.55726702436
 20
239.82278044369
 10
142.55726702436
 20
239.82278044369
 10
143.05726702436
 20
239.32278044369
 10
144.55726702436
 20
239.32278044369
  0
LWPOLYLINE
  5
670
330
A
100
AcDbEntity
  8
LEVEL001
  6
Continuous
 62
     3
370
    30
100
AcDbPolyline
 90
        4
 70
     0
 43
0.0
 10
133.55726702436
 20
236.82278044369
 10
142.55726702436
 20
236.82278044369
 10
143.05726702436
 20
237.32278044369
 10
144.55726702436
 20
237.32278044369
  0
ARC
  5
676
330
A
100
AcDbEntity
  8
LEVEL001
  6
Continuous
 62
     3
370
    30
100
AcDbCircle
 10
144.55726702436
 20
238.32278044369
 30
0.0
 40
1.0
100
AcDbArc
 50
270.0
 51
90.0
  0
LINE
  5
677
330
A
100
AcDbEntity
  8
LEVEL001
  6
Continuous
 62
     3
370
    30
100
AcDbLine
 10
183.27624706919
 20
252.92278044368
 30
0.0
 11
183.27624706921
 21
223.12278044369
 31
0.0
  0
LINE
  5
678
330
A
100
AcDbEntity
  8
LEVEL001
  6
Continuous
 62
     3
370
    30
100
AcDbLine
 10
191.77624706919
 20
256.76487728595
 30
0.0
 11
191.77624706921
 21
226.44778044369
 31
0.0
  0
LINE
  5
679
330
A
100
AcDbEntity
  8
LEVEL001
  6
Continuous
 62
     3
370
    30
100
AcDbLine
 10
193.27624706919
 20
256.67278044369
 30
0.0
 11
193.27624706921
 21
226.37278044358
 31
0.0
  0
CIRCLE
  5
67A
330
A
100
AcDbEntity
  8
LEVEL001
  6
Continuous
 62
     3
370
    30
100
AcDbCircle
 10
168.67624706924
 20
255.42278044369
 30
0.0
 40
1.5
  0
CIRCLE
  5
67B
330
A
100
AcDbEntity
  8
LEVEL001
  6
Continuous
 62
     3
370
    30
100
AcDbCircle
 10
168.67624706924
 20
255.42278044369
 30
0.0
 40
1.0
  0
LINE
  5
67C
330
A
100
AcDbEntity
  8
LEVEL001
  6
Continuous
 62
     3
370
    30
100
AcDbLine
 10
183.27624706924
 20
252.92278044364
 30
0.0
 11
153.47624706924
 21
252.92278044365
 31
0.0
  0
LINE
  5
67D
330
A
100
AcDbEntity
  8
LEVEL001
  6
Continuous
 62
     3
370
    30
100
AcDbLine
 10
187.11834391149
 20
261.42278044364
 30
0.0
 11
156.80124706924
 21
261.42278044365
 31
0.0
  0
LINE
  5
67E
330
A
100
AcDbEntity
  8
LEVEL001
  6
Continuous
 62
     3
370
    30
100
AcDbLine
 10
187.02624706923
 20
262.92278044364
 30
0.0
 11
156.72624706913
 21
262.92278044365
 31
0.0
  0
ARC
  5
67F
330
A
100
AcDbEntity
  8
LEVEL001
  6
Continuous
 62
     3
370
    30
100
AcDbCircle
 10
156.72624706913
 20
259.67278044365
 30
0.0
 40
3.25
100
AcDbArc
 50
89.999999999975
 51
180.00000000002
  0
LINE
  5
680
330
A
100
AcDbEntity
  8
LEVEL001
  6
Continuous
 62
     3
370
    30
100
AcDbLine
 10
155.17624706924
 20
252.92278044365
 30
0.0
 11
155.17624706924
 21
259.79778044365
 31
0.0
  0
ARC
  5
681
330
A
100
AcDbEntity
  8
LEVEL001
  6
Continuous
 62
     3
370
    30
100
AcDbCircle
 10
156.80124706924
 20
259.79778044365
 30
0.0
 40
1.625
100
AcDbArc
 50
89.99999999997399
 51
180.00000000002
  0
LINE
  5
682
330
A
100
AcDbEntity
  8
LEVEL001
  6
Continuous
 62
     3
370
    30
100
AcDbLine
 10
153.47624706924
 20
252.92278044365
 30
0.0
 11
153.47624706924
 21
259.67278044365
 31
0.0
  0
ARC
  5
683
330
A
100
AcDbEntity
  8
LEVEL001
  6
Continuous
 62
     3
370
    30
100
AcDbCircle
 10
65.726268412402
 20
248.57014748779
 30
0.0
 40
5.0
100
AcDbArc
 50
45.0
 51
135.0
  0
LINE
  5
684
330
A
100
AcDbEntity
  8
LEVEL001
  6
Continuous
 62
     3
370
    30
100
AcDbLine
 10
62.190734506469
 20
252.10568139372
 30
0.0
 11
42.39174463324499
 21
232.3066915205
 31
0.0
  0
ARC
  5
685
330
A
100
AcDbEntity
  8
LEVEL001
  6
Continuous
 62
     3
370
    30
100
AcDbCircle
 10
43.80595819562
 20
230.89247795812
 30
0.0
 40
2.0
100
AcDbArc
 50
135.0
 51
224.99999999996
  0
LINE
  5
686
330
A
100
AcDbEntity
  8
LEVEL001
  6
Continuous
 62
     3
370
    30
100
AcDbLine
 10
89.06079219155799
 20
232.3066915205
 30
0.0
 11
69.261802318334
 21
252.10568139372
 31
0.0
  0
ARC
  5
687
330
A
100
AcDbEntity
  8
LEVEL001
  6
Continuous
 62
     3
370
    30
100
AcDbCircle
 10
87.646578629185
 20
230.89247795812
 30
0.0
 40
2.0
100
AcDbArc
 50
315.0
 51
45.00000000003899
  0
LWPOLYLINE
  5
688
330
A
100
AcDbEntity
  8
LEVEL001
  6
Continuous
 62
     3
370
    30
100
AcDbPolyline
 90
        3
 70
     0
 43
0.0
 10
78.800420690314
 20
231.25335452275
 10
84.818151504438
 20
225.23562370863
 10
89.06079219155799
 20
229.47826439575
  0
ARC
  5
68D
330
A
100
AcDbEntity
  8
LEVEL001
  6
Continuous
 62
     3
370
    30
100
AcDbCircle
 10
70.262091158866
 20
243.20647529764
 30
0.0
 40
2.0
100
AcDbArc
 50
44.99999999999899
 51
135.0
  0
LWPOLYLINE
  5
68E
330
A
100
AcDbEntity
  8
LEVEL001
  6
Continuous
 62
     3
370
    30
100
AcDbPolyline
 90
        5
 70
     0
 43
0.0
 10
62.6046592286011
 20
244.6206888597231
 10
63.604948068842
 20
243.62040001948
 10
65.726268412402
 20
245.74172036304
 10
67.847588755961
 20
243.62040001948
 10
68.84787759649301
 20
244.62068886001
  0
LINE
  5
695
330
A
100
AcDbEntity
  8
LEVEL001
  6
Continuous
 62
     3
370
    30
100
AcDbLine
 10
71.676304721239
 20
244.62068886001
 30
0.0
 11
85.146688902808
 21
231.15030467844
 31
0.0
  0
ARC
  5
696
330
A
100
AcDbEntity
  8
LEVEL001
  6
Continuous
 62
     3
370
    30
100
AcDbCircle
 10
61.190445666228
 20
243.20647529735
 30
0.0
 40
2.0
100
AcDbArc
 50
45.0
 51
135.00000000002
  0
LWPOLYLINE
  5
697
330
A
100
AcDbEntity
  8
LEVEL001
  6
Continuous
 62
     3
370
    30
100
AcDbPolyline
 90
        3
 70
     0
 43
0.0
 10
42.39174463324499
 20
229.47826439575
 10
46.634385320365
 20
225.23562370863
 10
52.652116134165
 20
231.25335452243
  0
LINE
  5
69C
330
A
100
AcDbEntity
  8
LEVEL001
  6
Continuous
 62
     3
370
    30
100
AcDbLine
 10
59.776232103855
 20
244.62068885972
 30
0.0
 11
46.30584792225099
 21
231.15030467812
 31
0.0
  0
LINE
  5
69D
330
A
100
AcDbEntity
  8
LEVEL005
  6
Continuous
 62
     6
370
    15
100
AcDbLine
 10
29.737964378892
 20
51.4109596748
 30
0.0
 11
35.98796437889201
 21
51.4109596748
 31
0.0
  0
LINE
  5
69E
330
A
100
AcDbEntity
  8
LEVEL005
  6
Continuous
 62
     6
370
    15
100
AcDbLine
 10
29.737964378892
 20
49.077626341467
 30
0.0
 11
29.737964378892
 21
52.41095967479999
 31
0.0
  0
CIRCLE
  5
69F
330
A
100
AcDbEntity
  8
LEVEL005
  6
Continuous
 62
     6
370
    15
100
AcDbCircle
 10
29.737964378892
 20
51.4109596748
 30
0.0
 40
0.2
  0
TEXT
  5
6A0
330
A
100
AcDbEntity
  8
LEVEL005
 62
     6
370
    15
100
AcDbText
 10
30.112964378892
 20
52.41095967479999
 30
0.0
 40
3.0
  1
５０
 41
0.8
100
AcDbText
  0
LINE
  5
6A1
330
A
100
AcDbEntity
  8
LEVEL005
  6
Continuous
 62
     6
370
    15
100
AcDbLine
 10
35.98796437889201
 20
51.4109596748
 30
0.0
 11
92.237964378892
 21
51.4109596748
 31
0.0
  0
LINE
  5
6A2
330
A
100
AcDbEntity
  8
LEVEL005
  6
Continuous
 62
     6
370
    15
100
AcDbLine
 10
35.98796437889201
 20
49.077626341467
 30
0.0
 11
35.98796437889201
 21
52.41095967479999
 31
0.0
  0
CIRCLE
  5
6A3
330
A
100
AcDbEntity
  8
LEVEL005
  6
Continuous
 62
     6
370
    15
100
AcDbCircle
 10
35.98796437889201
 20
51.4109596748
 30
0.0
 40
0.2
  0
TEXT
  5
6A4
330
A
100
AcDbEntity
  8
LEVEL005
 62
     6
370
    15
100
AcDbText
 10
60.112964378892
 20
52.41095967479999
 30
0.0
 40
3.0
  1
４５０
 41
0.8
100
AcDbText
  0
LINE
  5
6A5
330
A
100
AcDbEntity
  8
LEVEL005
  6
Continuous
 62
     6
370
    15
100
AcDbLine
 10
92.237964378892
 20
51.4109596748
 30
0.0
 11
148.48796437889
 21
51.4109596748
 31
0.0
  0
LINE
  5
6A6
330
A
100
AcDbEntity
  8
LEVEL005
  6
Continuous
 62
     6
370
    15
100
AcDbLine
 10
92.237964378892
 20
49.077626341467
 30
0.0
 11
92.237964378892
 21
52.41095967479999
 31
0.0
  0
CIRCLE
  5
6A7
330
A
100
AcDbEntity
  8
LEVEL005
  6
Continuous
 62
     6
370
    15
100
AcDbCircle
 10
92.237964378892
 20
51.4109596748
 30
0.0
 40
0.2
  0
TEXT
  5
6A8
330
A
100
AcDbEntity
  8
LEVEL005
 62
     6
370
    15
100
AcDbText
 10
116.36296437889
 20
52.41095967479999
 30
0.0
 40
3.0
  1
４５０
 41
0.8
100
AcDbText
  0
LINE
  5
6A9
330
A
100
AcDbEntity
  8
LEVEL005
  6
Continuous
 62
     6
370
    15
100
AcDbLine
 10
148.48796437889
 20
51.4109596748
 30
0.0
 11
204.73796437889
 21
51.4109596748
 31
0.0
  0
LINE
  5
6AA
330
A
100
AcDbEntity
  8
LEVEL005
  6
Continuous
 62
     6
370
    15
100
AcDbLine
 10
148.48796437889
 20
49.077626341467
 30
0.0
 11
148.48796437889
 21
52.41095967479999
 31
0.0
  0
CIRCLE
  5
6AB
330
A
100
AcDbEntity
  8
LEVEL005
  6
Continuous
 62
     6
370
    15
100
AcDbCircle
 10
148.48796437889
 20
51.4109596748
 30
0.0
 40
0.2
  0
TEXT
  5
6AC
330
A
100
AcDbEntity
  8
LEVEL005
 62
     6
370
    15
100
AcDbText
 10
172.61296437889
 20
52.41095967479999
 30
0.0
 40
3.0
  1
４５０
 41
0.8
100
AcDbText
  0
LINE
  5
6AD
330
A
100
AcDbEntity
  8
LEVEL005
  6
Continuous
 62
     6
370
    15
100
AcDbLine
 10
204.73796437889
 20
51.4109596748
 30
0.0
 11
260.98796437889
 21
51.4109596748
 31
0.0
  0
LINE
  5
6AE
330
A
100
AcDbEntity
  8
LEVEL005
  6
Continuous
 62
     6
370
    15
100
AcDbLine
 10
204.73796437889
 20
49.077626341467
 30
0.0
 11
204.73796437889
 21
52.41095967479999
 31
0.0
  0
CIRCLE
  5
6AF
330
A
100
AcDbEntity
  8
LEVEL005
  6
Continuous
 62
     6
370
    15
100
AcDbCircle
 10
204.73796437889
 20
51.4109596748
 30
0.0
 40
0.2
  0
TEXT
  5
6B0
330
A
100
AcDbEntity
  8
LEVEL005
 62
     6
370
    15
100
AcDbText
 10
228.86296437889
 20
52.41095967479999
 30
0.0
 40
3.0
  1
４５０
 41
0.8
100
AcDbText
  0
LINE
  5
6B1
330
A
100
AcDbEntity
  8
LEVEL005
  6
Continuous
 62
     6
370
    15
100
AcDbLine
 10
260.98796437889
 20
51.4109596748
 30
0.0
 11
279.11296437889
 21
51.4109596748
 31
0.0
  0
LINE
  5
6B2
330
A
100
AcDbEntity
  8
LEVEL005
  6
Continuous
 62
     6
370
    15
100
AcDbLine
 10
260.98796437889
 20
49.077626341467
 30
0.0
 11
260.98796437889
 21
52.41095967479999
 31
0.0
  0
LINE
  5
6B3
330
A
100
AcDbEntity
  8
LEVEL005
  6
Continuous
 62
     6
370
    15
100
AcDbLine
 10
279.11296437889
 20
49.077626341467
 30
0.0
 11
279.11296437889
 21
52.41095967479999
 31
0.0
  0
CIRCLE
  5
6B4
330
A
100
AcDbEntity
  8
LEVEL005
  6
Continuous
 62
     6
370
    15
100
AcDbCircle
 10
260.98796437889
 20
51.4109596748
 30
0.0
 40
0.2
  0
CIRCLE
  5
6B5
330
A
100
AcDbEntity
  8
LEVEL005
  6
Continuous
 62
     6
370
    15
100
AcDbCircle
 10
279.11296437889
 20
51.4109596748
 30
0.0
 40
0.2
  0
TEXT
  5
6B6
330
A
100
AcDbEntity
  8
LEVEL005
 62
     6
370
    15
100
AcDbText
 10
266.05046437889
 20
52.41095967479999
 30
0.0
 40
3.0
  1
１４５
 41
0.8
100
AcDbText
  0
LINE
  5
6B7
330
A
100
AcDbEntity
  8
LEVEL005
  6
Continuous
 62
     6
370
    15
100
AcDbLine
 10
29.737964378892
 20
36.515581734678
 30
0.0
 11
47.862964378892
 21
36.515581734678
 31
0.0
  0
LINE
  5
6B8
330
A
100
AcDbEntity
  8
LEVEL005
  6
Continuous
 62
     6
370
    15
100
AcDbLine
 10
29.737964378892
 20
42.18224840134499
 30
0.0
 11
29.737964378892
 21
35.515581734678
 31
0.0
  0
CIRCLE
  5
6B9
330
A
100
AcDbEntity
  8
LEVEL005
  6
Continuous
 62
     6
370
    15
100
AcDbCircle
 10
29.737964378892
 20
36.515581734678
 30
0.0
 40
0.2
  0
TEXT
  5
6BA
330
A
100
AcDbEntity
  8
LEVEL005
 62
     6
370
    15
100
AcDbText
 10
34.800464378892
 20
37.515581734678
 30
0.0
 40
3.0
  1
１４５
 41
0.8
100
AcDbText
  0
LINE
  5
6BB
330
A
100
AcDbEntity
  8
LEVEL005
  6
Continuous
 62
     6
370
    15
100
AcDbLine
 10
47.862964378892
 20
36.515581734678
 30
0.0
 11
104.11296437889
 21
36.515581734678
 31
0.0
  0
LINE
  5
6BC
330
A
100
AcDbEntity
  8
LEVEL005
  6
Continuous
 62
     6
370
    15
100
AcDbLine
 10
47.862964378892
 20
42.18224840134499
 30
0.0
 11
47.862964378892
 21
35.515581734678
 31
0.0
  0
CIRCLE
  5
6BD
330
A
100
AcDbEntity
  8
LEVEL005
  6
Continuous
 62
     6
370
    15
100
AcDbCircle
 10
47.862964378892
 20
36.515581734678
 30
0.0
 40
0.2
  0
TEXT
  5
6BE
330
A
100
AcDbEntity
  8
LEVEL005
 62
     6
370
    15
100
AcDbText
 10
71.987964378892
 20
37.515581734678
 30
0.0
 40
3.0
  1
４５０
 41
0.8
100
AcDbText
  0
LINE
  5
6BF
330
A
100
AcDbEntity
  8
LEVEL005
  6
Continuous
 62
     6
370
    15
100
AcDbLine
 10
104.11296437889
 20
36.515581734678
 30
0.0
 11
160.36296437889
 21
36.515581734678
 31
0.0
  0
LINE
  5
6C0
330
A
100
AcDbEntity
  8
LEVEL005
  6
Continuous
 62
     6
370
    15
100
AcDbLine
 10
104.11296437889
 20
42.18224840134499
 30
0.0
 11
104.11296437889
 21
35.515581734678
 31
0.0
  0
CIRCLE
  5
6C1
330
A
100
AcDbEntity
  8
LEVEL005
  6
Continuous
 62
     6
370
    15
100
AcDbCircle
 10
104.11296437889
 20
36.515581734678
 30
0.0
 40
0.2
  0
TEXT
  5
6C2
330
A
100
AcDbEntity
  8
LEVEL005
 62
     6
370
    15
100
AcDbText
 10
128.23796437889
 20
37.515581734678
 30
0.0
 40
3.0
  1
４５０
 41
0.8
100
AcDbText
  0
LINE
  5
6C3
330
A
100
AcDbEntity
  8
LEVEL005
  6
Continuous
 62
     6
370
    15
100
AcDbLine
 10
160.36296437889
 20
36.515581734678
 30
0.0
 11
216.61296437889
 21
36.515581734678
 31
0.0
  0
LINE
  5
6C4
330
A
100
AcDbEntity
  8
LEVEL005
  6
Continuous
 62
     6
370
    15
100
AcDbLine
 10
160.36296437889
 20
42.18224840134499
 30
0.0
 11
160.36296437889
 21
35.515581734678
 31
0.0
  0
CIRCLE
  5
6C5
330
A
100
AcDbEntity
  8
LEVEL005
  6
Continuous
 62
     6
370
    15
100
AcDbCircle
 10
160.36296437889
 20
36.515581734678
 30
0.0
 40
0.2
  0
TEXT
  5
6C6
330
A
100
AcDbEntity
  8
LEVEL005
 62
     6
370
    15
100
AcDbText
 10
184.48796437889
 20
37.515581734678
 30
0.0
 40
3.0
  1
４５０
 41
0.8
100
AcDbText
  0
LINE
  5
6C7
330
A
100
AcDbEntity
  8
LEVEL005
  6
Continuous
 62
     6
370
    15
100
AcDbLine
 10
216.61296437889
 20
36.515581734678
 30
0.0
 11
272.86296437889
 21
36.515581734678
 31
0.0
  0
LINE
  5
6C8
330
A
100
AcDbEntity
  8
LEVEL005
  6
Continuous
 62
     6
370
    15
100
AcDbLine
 10
216.61296437889
 20
42.18224840134499
 30
0.0
 11
216.61296437889
 21
35.515581734678
 31
0.0
  0
CIRCLE
  5
6C9
330
A
100
AcDbEntity
  8
LEVEL005
  6
Continuous
 62
     6
370
    15
100
AcDbCircle
 10
216.61296437889
 20
36.515581734678
 30
0.0
 40
0.2
  0
TEXT
  5
6CA
330
A
100
AcDbEntity
  8
LEVEL005
 62
     6
370
    15
100
AcDbText
 10
240.73796437889
 20
37.515581734678
 30
0.0
 40
3.0
  1
４５０
 41
0.8
100
AcDbText
  0
LINE
  5
6CB
330
A
100
AcDbEntity
  8
LEVEL005
  6
Continuous
 62
     6
370
    15
100
AcDbLine
 10
272.86296437889
 20
36.515581734678
 30
0.0
 11
279.11296437889
 21
36.515581734678
 31
0.0
  0
LINE
  5
6CC
330
A
100
AcDbEntity
  8
LEVEL005
  6
Continuous
 62
     6
370
    15
100
AcDbLine
 10
272.86296437889
 20
42.18224840134499
 30
0.0
 11
272.86296437889
 21
35.515581734678
 31
0.0
  0
LINE
  5
6CD
330
A
100
AcDbEntity
  8
LEVEL005
  6
Continuous
 62
     6
370
    15
100
AcDbLine
 10
279.11296437889
 20
42.18224840134499
 30
0.0
 11
279.11296437889
 21
35.515581734678
 31
0.0
  0
CIRCLE
  5
6CE
330
A
100
AcDbEntity
  8
LEVEL005
  6
Continuous
 62
     6
370
    15
100
AcDbCircle
 10
272.86296437889
 20
36.515581734678
 30
0.0
 40
0.2
  0
CIRCLE
  5
6CF
330
A
100
AcDbEntity
  8
LEVEL005
  6
Continuous
 62
     6
370
    15
100
AcDbCircle
 10
279.11296437889
 20
36.515581734678
 30
0.0
 40
0.2
  0
TEXT
  5
6D0
330
A
100
AcDbEntity
  8
LEVEL005
 62
     6
370
    15
100
AcDbText
 10
273.23796437889
 20
37.515581734678
 30
0.0
 40
3.0
  1
５０
 41
0.8
100
AcDbText
  0
LINE
  5
6D1
330
A
100
AcDbEntity
  8
LEVEL005
  6
Continuous
 62
     6
370
    15
100
AcDbLine
 10
29.737964378892
 20
57.244293008134
 30
0.0
 11
279.11296437889
 21
57.244293008134
 31
0.0
  0
LINE
  5
6D2
330
A
100
AcDbEntity
  8
LEVEL005
  6
Continuous
 62
     6
370
    15
100
AcDbLine
 10
29.737964378892
 20
51.577626341467
 30
0.0
 11
29.737964378892
 21
58.244293008134
 31
0.0
  0
LINE
  5
6D3
330
A
100
AcDbEntity
  8
LEVEL005
  6
Continuous
 62
     6
370
    15
100
AcDbLine
 10
279.11296437889
 20
51.577626341467
 30
0.0
 11
279.11296437889
 21
58.244293008134
 31
0.0
  0
CIRCLE
  5
6D4
330
A
100
AcDbEntity
  8
LEVEL005
  6
Continuous
 62
     6
370
    15
100
AcDbCircle
 10
29.737964378892
 20
57.244293008134
 30
0.0
 40
0.2
  0
CIRCLE
  5
6D5
330
A
100
AcDbEntity
  8
LEVEL005
  6
Continuous
 62
     6
370
    15
100
AcDbCircle
 10
279.11296437889
 20
57.244293008134
 30
0.0
 40
0.2
  0
TEXT
  5
6D6
330
A
100
AcDbEntity
  8
LEVEL005
 62
     6
370
    15
100
AcDbText
 10
149.17546437889
 20
58.244293008134
 30
0.0
 40
3.0
  1
１９９５
 41
0.8
100
AcDbText
  0
LINE
  5
6D7
330
A
100
AcDbEntity
  8
LEVEL005
  6
Continuous
 62
     6
370
    15
100
AcDbLine
 10
29.737964378892
 20
82.730517776273
 30
0.0
 11
41.612964378892
 21
82.730517776273
 31
0.0
  0
LINE
  5
6D8
330
A
100
AcDbEntity
  8
LEVEL005
  6
Continuous
 62
     6
370
    15
100
AcDbLine
 10
29.737964378892
 20
88.39718444294
 30
0.0
 11
29.737964378892
 21
81.730517776273
 31
0.0
  0
CIRCLE
  5
6D9
330
A
100
AcDbEntity
  8
LEVEL005
  6
Continuous
 62
     6
370
    15
100
AcDbCircle
 10
29.737964378892
 20
82.730517776273
 30
0.0
 40
0.2
  0
TEXT
  5
6DA
330
A
100
AcDbEntity
  8
LEVEL005
 62
     6
370
    15
100
AcDbText
 10
32.925464378892
 20
83.73051777627301
 30
0.0
 40
3.0
  1
９５
 41
0.8
100
AcDbText
  0
LINE
  5
6DB
330
A
100
AcDbEntity
  8
LEVEL005
  6
Continuous
 62
     6
370
    15
100
AcDbLine
 10
41.612964378892
 20
82.730517776273
 30
0.0
 11
97.862964378892
 21
82.730517776273
 31
0.0
  0
LINE
  5
6DC
330
A
100
AcDbEntity
  8
LEVEL005
  6
Continuous
 62
     6
370
    15
100
AcDbLine
 10
41.612964378892
 20
88.39718444294
 30
0.0
 11
41.612964378892
 21
81.730517776273
 31
0.0
  0
CIRCLE
  5
6DD
330
A
100
AcDbEntity
  8
LEVEL005
  6
Continuous
 62
     6
370
    15
100
AcDbCircle
 10
41.612964378892
 20
82.730517776273
 30
0.0
 40
0.2
  0
TEXT
  5
6DE
330
A
100
AcDbEntity
  8
LEVEL005
 62
     6
370
    15
100
AcDbText
 10
65.737964378892
 20
83.73051777627301
 30
0.0
 40
3.0
  1
４５０
 41
0.8
100
AcDbText
  0
LINE
  5
6DF
330
A
100
AcDbEntity
  8
LEVEL005
  6
Continuous
 62
     6
370
    15
100
AcDbLine
 10
97.862964378892
 20
82.730517776273
 30
0.0
 11
154.11296437889
 21
82.730517776273
 31
0.0
  0
LINE
  5
6E0
330
A
100
AcDbEntity
  8
LEVEL005
  6
Continuous
 62
     6
370
    15
100
AcDbLine
 10
97.862964378892
 20
88.39718444294
 30
0.0
 11
97.862964378892
 21
81.730517776273
 31
0.0
  0
CIRCLE
  5
6E1
330
A
100
AcDbEntity
  8
LEVEL005
  6
Continuous
 62
     6
370
    15
100
AcDbCircle
 10
97.862964378892
 20
82.730517776273
 30
0.0
 40
0.2
  0
TEXT
  5
6E2
330
A
100
AcDbEntity
  8
LEVEL005
 62
     6
370
    15
100
AcDbText
 10
121.98796437889
 20
83.73051777627301
 30
0.0
 40
3.0
  1
４５０
 41
0.8
100
AcDbText
  0
LINE
  5
6E3
330
A
100
AcDbEntity
  8
LEVEL005
  6
Continuous
 62
     6
370
    15
100
AcDbLine
 10
154.11296437889
 20
82.730517776273
 30
0.0
 11
210.36296437889
 21
82.730517776273
 31
0.0
  0
LINE
  5
6E4
330
A
100
AcDbEntity
  8
LEVEL005
  6
Continuous
 62
     6
370
    15
100
AcDbLine
 10
154.11296437889
 20
88.39718444294
 30
0.0
 11
154.11296437889
 21
81.730517776273
 31
0.0
  0
CIRCLE
  5
6E5
330
A
100
AcDbEntity
  8
LEVEL005
  6
Continuous
 62
     6
370
    15
100
AcDbCircle
 10
154.11296437889
 20
82.730517776273
 30
0.0
 40
0.2
  0
TEXT
  5
6E6
330
A
100
AcDbEntity
  8
LEVEL005
 62
     6
370
    15
100
AcDbText
 10
178.23796437889
 20
83.73051777627301
 30
0.0
 40
3.0
  1
４５０
 41
0.8
100
AcDbText
  0
LINE
  5
6E7
330
A
100
AcDbEntity
  8
LEVEL005
  6
Continuous
 62
     6
370
    15
100
AcDbLine
 10
210.36296437889
 20
82.730517776273
 30
0.0
 11
216.61296437889
 21
82.730517776273
 31
0.0
  0
LINE
  5
6E8
330
A
100
AcDbEntity
  8
LEVEL005
  6
Continuous
 62
     6
370
    15
100
AcDbLine
 10
210.36296437889
 20
88.39718444294
 30
0.0
 11
210.36296437889
 21
81.730517776273
 31
0.0
  0
LINE
  5
6E9
330
A
100
AcDbEntity
  8
LEVEL005
  6
Continuous
 62
     6
370
    15
100
AcDbLine
 10
216.61296437889
 20
88.39718444294
 30
0.0
 11
216.61296437889
 21
81.730517776273
 31
0.0
  0
CIRCLE
  5
6EA
330
A
100
AcDbEntity
  8
LEVEL005
  6
Continuous
 62
     6
370
    15
100
AcDbCircle
 10
210.36296437889
 20
82.730517776273
 30
0.0
 40
0.2
  0
CIRCLE
  5
6EB
330
A
100
AcDbEntity
  8
LEVEL005
  6
Continuous
 62
     6
370
    15
100
AcDbCircle
 10
216.61296437889
 20
82.730517776273
 30
0.0
 40
0.2
  0
TEXT
  5
6EC
330
A
100
AcDbEntity
  8
LEVEL005
 62
     6
370
    15
100
AcDbText
 10
210.73796437889
 20
83.73051777627301
 30
0.0
 40
3.0
  1
５０
 41
0.8
100
AcDbText
  0
LINE
  5
6ED
330
A
100
AcDbEntity
  8
LEVEL005
  6
Continuous
 62
     6
370
    15
100
AcDbLine
 10
29.737964378892
 20
97.62589571639601
 30
0.0
 11
35.98796437889201
 21
97.62589571639601
 31
0.0
  0
LINE
  5
6EE
330
A
100
AcDbEntity
  8
LEVEL005
  6
Continuous
 62
     6
370
    15
100
AcDbLine
 10
29.737964378892
 20
95.29256238306201
 30
0.0
 11
29.737964378892
 21
98.62589571639601
 31
0.0
  0
CIRCLE
  5
6EF
330
A
100
AcDbEntity
  8
LEVEL005
  6
Continuous
 62
     6
370
    15
100
AcDbCircle
 10
29.737964378892
 20
97.62589571639601
 30
0.0
 40
0.2
  0
TEXT
  5
6F0
330
A
100
AcDbEntity
  8
LEVEL005
 62
     6
370
    15
100
AcDbText
 10
30.112964378892
 20
98.62589571639601
 30
0.0
 40
3.0
  1
５０
 41
0.8
100
AcDbText
  0
LINE
  5
6F1
330
A
100
AcDbEntity
  8
LEVEL005
  6
Continuous
 62
     6
370
    15
100
AcDbLine
 10
35.98796437889201
 20
97.62589571639601
 30
0.0
 11
92.237964378892
 21
97.62589571639601
 31
0.0
  0
LINE
  5
6F2
330
A
100
AcDbEntity
  8
LEVEL005
  6
Continuous
 62
     6
370
    15
100
AcDbLine
 10
35.98796437889201
 20
95.29256238306201
 30
0.0
 11
35.98796437889201
 21
98.62589571639601
 31
0.0
  0
CIRCLE
  5
6F3
330
A
100
AcDbEntity
  8
LEVEL005
  6
Continuous
 62
     6
370
    15
100
AcDbCircle
 10
35.98796437889201
 20
97.62589571639601
 30
0.0
 40
0.2
  0
TEXT
  5
6F4
330
A
100
AcDbEntity
  8
LEVEL005
 62
     6
370
    15
100
AcDbText
 10
60.112964378892
 20
98.62589571639601
 30
0.0
 40
3.0
  1
４５０
 41
0.8
100
AcDbText
  0
LINE
  5
6F5
330
A
100
AcDbEntity
  8
LEVEL005
  6
Continuous
 62
     6
370
    15
100
AcDbLine
 10
92.237964378892
 20
97.62589571639601
 30
0.0
 11
148.48796437889
 21
97.62589571639601
 31
0.0
  0
LINE
  5
6F6
330
A
100
AcDbEntity
  8
LEVEL005
  6
Continuous
 62
     6
370
    15
100
AcDbLine
 10
92.237964378892
 20
95.29256238306201
 30
0.0
 11
92.237964378892
 21
98.62589571639601
 31
0.0
  0
CIRCLE
  5
6F7
330
A
100
AcDbEntity
  8
LEVEL005
  6
Continuous
 62
     6
370
    15
100
AcDbCircle
 10
92.237964378892
 20
97.62589571639601
 30
0.0
 40
0.2
  0
TEXT
  5
6F8
330
A
100
AcDbEntity
  8
LEVEL005
 62
     6
370
    15
100
AcDbText
 10
116.36296437889
 20
98.62589571639601
 30
0.0
 40
3.0
  1
４５０
 41
0.8
100
AcDbText
  0
LINE
  5
6F9
330
A
100
AcDbEntity
  8
LEVEL005
  6
Continuous
 62
     6
370
    15
100
AcDbLine
 10
148.48796437889
 20
97.62589571639601
 30
0.0
 11
204.73796437889
 21
97.62589571639601
 31
0.0
  0
LINE
  5
6FA
330
A
100
AcDbEntity
  8
LEVEL005
  6
Continuous
 62
     6
370
    15
100
AcDbLine
 10
148.48796437889
 20
95.29256238306201
 30
0.0
 11
148.48796437889
 21
98.62589571639601
 31
0.0
  0
CIRCLE
  5
6FB
330
A
100
AcDbEntity
  8
LEVEL005
  6
Continuous
 62
     6
370
    15
100
AcDbCircle
 10
148.48796437889
 20
97.62589571639601
 30
0.0
 40
0.2
  0
TEXT
  5
6FC
330
A
100
AcDbEntity
  8
LEVEL005
 62
     6
370
    15
100
AcDbText
 10
172.61296437889
 20
98.62589571639601
 30
0.0
 40
3.0
  1
４５０
 41
0.8
100
AcDbText
  0
LINE
  5
6FD
330
A
100
AcDbEntity
  8
LEVEL005
  6
Continuous
 62
     6
370
    15
100
AcDbLine
 10
204.73796437889
 20
97.62589571639601
 30
0.0
 11
216.61296437889
 21
97.62589571639601
 31
0.0
  0
LINE
  5
6FE
330
A
100
AcDbEntity
  8
LEVEL005
  6
Continuous
 62
     6
370
    15
100
AcDbLine
 10
204.73796437889
 20
95.29256238306201
 30
0.0
 11
204.73796437889
 21
98.62589571639601
 31
0.0
  0
LINE
  5
6FF
330
A
100
AcDbEntity
  8
LEVEL005
  6
Continuous
 62
     6
370
    15
100
AcDbLine
 10
216.61296437889
 20
95.29256238306201
 30
0.0
 11
216.61296437889
 21
98.62589571639601
 31
0.0
  0
CIRCLE
  5
700
330
A
100
AcDbEntity
  8
LEVEL005
  6
Continuous
 62
     6
370
    15
100
AcDbCircle
 10
204.73796437889
 20
97.62589571639601
 30
0.0
 40
0.2
  0
CIRCLE
  5
701
330
A
100
AcDbEntity
  8
LEVEL005
  6
Continuous
 62
     6
370
    15
100
AcDbCircle
 10
216.61296437889
 20
97.62589571639601
 30
0.0
 40
0.2
  0
TEXT
  5
702
330
A
100
AcDbEntity
  8
LEVEL005
 62
     6
370
    15
100
AcDbText
 10
207.92546437889
 20
98.62589571639601
 30
0.0
 40
3.0
  1
９５
 41
0.8
100
AcDbText
  0
LINE
  5
703
330
A
100
AcDbEntity
  8
LEVEL005
  6
Continuous
 62
     6
370
    15
100
AcDbLine
 10
29.737964378892
 20
103.45922904973
 30
0.0
 11
216.61296437889
 21
103.45922904973
 31
0.0
  0
LINE
  5
704
330
A
100
AcDbEntity
  8
LEVEL005
  6
Continuous
 62
     6
370
    15
100
AcDbLine
 10
29.737964378892
 20
97.79256238306201
 30
0.0
 11
29.737964378892
 21
104.45922904973
 31
0.0
  0
LINE
  5
705
330
A
100
AcDbEntity
  8
LEVEL005
  6
Continuous
 62
     6
370
    15
100
AcDbLine
 10
216.61296437889
 20
97.79256238306201
 30
0.0
 11
216.61296437889
 21
104.45922904973
 31
0.0
  0
CIRCLE
  5
706
330
A
100
AcDbEntity
  8
LEVEL005
  6
Continuous
 62
     6
370
    15
100
AcDbCircle
 10
29.737964378892
 20
103.45922904973
 30
0.0
 40
0.2
  0
CIRCLE
  5
707
330
A
100
AcDbEntity
  8
LEVEL005
  6
Continuous
 62
     6
370
    15
100
AcDbCircle
 10
216.61296437889
 20
103.45922904973
 30
0.0
 40
0.2
  0
TEXT
  5
708
330
A
100
AcDbEntity
  8
LEVEL005
 62
     6
370
    15
100
AcDbText
 10
117.92546437889
 20
104.45922904973
 30
0.0
 40
3.0
  1
１４９５
 41
0.8
100
AcDbText
  0
LINE
  5
709
330
A
100
AcDbEntity
  8
LEVEL005
  6
Continuous
 62
     6
370
    15
100
AcDbLine
 10
29.737964378892
 20
144.96994160723
 30
0.0
 11
35.98796437889201
 21
144.96994160723
 31
0.0
  0
LINE
  5
70A
330
A
100
AcDbEntity
  8
LEVEL005
  6
Continuous
 62
     6
370
    15
100
AcDbLine
 10
29.737964378892
 20
142.63660827389
 30
0.0
 11
29.737964378892
 21
145.96994160723
 31
0.0
  0
CIRCLE
  5
70B
330
A
100
AcDbEntity
  8
LEVEL005
  6
Continuous
 62
     6
370
    15
100
AcDbCircle
 10
29.737964378892
 20
144.96994160723
 30
0.0
 40
0.2
  0
TEXT
  5
70C
330
A
100
AcDbEntity
  8
LEVEL005
 62
     6
370
    15
100
AcDbText
 10
30.112964378892
 20
145.96994160723
 30
0.0
 40
3.0
  1
５０
 41
0.8
100
AcDbText
  0
LINE
  5
70D
330
A
100
AcDbEntity
  8
LEVEL005
  6
Continuous
 62
     6
370
    15
100
AcDbLine
 10
35.98796437889201
 20
144.96994160723
 30
0.0
 11
89.112964378892
 21
144.96994160723
 31
0.0
  0
LINE
  5
70E
330
A
100
AcDbEntity
  8
LEVEL005
  6
Continuous
 62
     6
370
    15
100
AcDbLine
 10
35.98796437889201
 20
142.63660827389
 30
0.0
 11
35.98796437889201
 21
145.96994160723
 31
0.0
  0
CIRCLE
  5
70F
330
A
100
AcDbEntity
  8
LEVEL005
  6
Continuous
 62
     6
370
    15
100
AcDbCircle
 10
35.98796437889201
 20
144.96994160723
 30
0.0
 40
0.2
  0
TEXT
  5
710
330
A
100
AcDbEntity
  8
LEVEL005
 62
     6
370
    15
100
AcDbText
 10
58.550464378892
 20
145.96994160723
 30
0.0
 40
3.0
  1
４２５
 41
0.8
100
AcDbText
  0
LINE
  5
711
330
A
100
AcDbEntity
  8
LEVEL005
  6
Continuous
 62
     6
370
    15
100
AcDbLine
 10
89.112964378892
 20
144.96994160723
 30
0.0
 11
142.23796437889
 21
144.96994160723
 31
0.0
  0
LINE
  5
712
330
A
100
AcDbEntity
  8
LEVEL005
  6
Continuous
 62
     6
370
    15
100
AcDbLine
 10
89.112964378892
 20
142.63660827389
 30
0.0
 11
89.112964378892
 21
145.96994160723
 31
0.0
  0
CIRCLE
  5
713
330
A
100
AcDbEntity
  8
LEVEL005
  6
Continuous
 62
     6
370
    15
100
AcDbCircle
 10
89.112964378892
 20
144.96994160723
 30
0.0
 40
0.2
  0
TEXT
  5
714
330
A
100
AcDbEntity
  8
LEVEL005
 62
     6
370
    15
100
AcDbText
 10
111.67546437889
 20
145.96994160723
 30
0.0
 40
3.0
  1
４２５
 41
0.8
100
AcDbText
  0
LINE
  5
715
330
A
100
AcDbEntity
  8
LEVEL005
  6
Continuous
 62
     6
370
    15
100
AcDbLine
 10
142.23796437889
 20
144.96994160723
 30
0.0
 11
154.11296437889
 21
144.96994160723
 31
0.0
  0
LINE
  5
716
330
A
100
AcDbEntity
  8
LEVEL005
  6
Continuous
 62
     6
370
    15
100
AcDbLine
 10
142.23796437889
 20
142.63660827389
 30
0.0
 11
142.23796437889
 21
145.96994160723
 31
0.0
  0
LINE
  5
717
330
A
100
AcDbEntity
  8
LEVEL005
  6
Continuous
 62
     6
370
    15
100
AcDbLine
 10
154.11296437889
 20
142.63660827389
 30
0.0
 11
154.11296437889
 21
145.96994160723
 31
0.0
  0
CIRCLE
  5
718
330
A
100
AcDbEntity
  8
LEVEL005
  6
Continuous
 62
     6
370
    15
100
AcDbCircle
 10
142.23796437889
 20
144.96994160723
 30
0.0
 40
0.2
  0
CIRCLE
  5
719
330
A
100
AcDbEntity
  8
LEVEL005
  6
Continuous
 62
     6
370
    15
100
AcDbCircle
 10
154.11296437889
 20
144.96994160723
 30
0.0
 40
0.2
  0
TEXT
  5
71A
330
A
100
AcDbEntity
  8
LEVEL005
 62
     6
370
    15
100
AcDbText
 10
145.42546437889
 20
145.96994160723
 30
0.0
 40
3.0
  1
９５
 41
0.8
100
AcDbText
  0
LINE
  5
71B
330
A
100
AcDbEntity
  8
LEVEL005
  6
Continuous
 62
     6
370
    15
100
AcDbLine
 10
29.737964378892
 20
130.07456366711
 30
0.0
 11
41.612964378892
 21
130.07456366711
 31
0.0
  0
LINE
  5
71C
330
A
100
AcDbEntity
  8
LEVEL005
  6
Continuous
 62
     6
370
    15
100
AcDbLine
 10
29.737964378892
 20
135.74123033377
 30
0.0
 11
29.737964378892
 21
129.07456366711
 31
0.0
  0
CIRCLE
  5
71D
330
A
100
AcDbEntity
  8
LEVEL005
  6
Continuous
 62
     6
370
    15
100
AcDbCircle
 10
29.737964378892
 20
130.07456366711
 30
0.0
 40
0.2
  0
TEXT
  5
71E
330
A
100
AcDbEntity
  8
LEVEL005
 62
     6
370
    15
100
AcDbText
 10
32.925464378892
 20
131.07456366711
 30
0.0
 40
3.0
  1
９５
 41
0.8
100
AcDbText
  0
LINE
  5
71F
330
A
100
AcDbEntity
  8
LEVEL005
  6
Continuous
 62
     6
370
    15
100
AcDbLine
 10
41.612964378892
 20
130.07456366711
 30
0.0
 11
94.737964378892
 21
130.07456366711
 31
0.0
  0
LINE
  5
720
330
A
100
AcDbEntity
  8
LEVEL005
  6
Continuous
 62
     6
370
    15
100
AcDbLine
 10
41.612964378892
 20
135.74123033377
 30
0.0
 11
41.612964378892
 21
129.07456366711
 31
0.0
  0
CIRCLE
  5
721
330
A
100
AcDbEntity
  8
LEVEL005
  6
Continuous
 62
     6
370
    15
100
AcDbCircle
 10
41.612964378892
 20
130.07456366711
 30
0.0
 40
0.2
  0
TEXT
  5
722
330
A
100
AcDbEntity
  8
LEVEL005
 62
     6
370
    15
100
AcDbText
 10
64.175464378892
 20
131.07456366711
 30
0.0
 40
3.0
  1
４２５
 41
0.8
100
AcDbText
  0
LINE
  5
723
330
A
100
AcDbEntity
  8
LEVEL005
  6
Continuous
 62
     6
370
    15
100
AcDbLine
 10
94.737964378892
 20
130.07456366711
 30
0.0
 11
147.86296437889
 21
130.07456366711
 31
0.0
  0
LINE
  5
724
330
A
100
AcDbEntity
  8
LEVEL005
  6
Continuous
 62
     6
370
    15
100
AcDbLine
 10
94.737964378892
 20
135.74123033377
 30
0.0
 11
94.737964378892
 21
129.07456366711
 31
0.0
  0
CIRCLE
  5
725
330
A
100
AcDbEntity
  8
LEVEL005
  6
Continuous
 62
     6
370
    15
100
AcDbCircle
 10
94.737964378892
 20
130.07456366711
 30
0.0
 40
0.2
  0
TEXT
  5
726
330
A
100
AcDbEntity
  8
LEVEL005
 62
     6
370
    15
100
AcDbText
 10
117.30046437889
 20
131.07456366711
 30
0.0
 40
3.0
  1
４２５
 41
0.8
100
AcDbText
  0
LINE
  5
727
330
A
100
AcDbEntity
  8
LEVEL005
  6
Continuous
 62
     6
370
    15
100
AcDbLine
 10
147.86296437889
 20
130.07456366711
 30
0.0
 11
154.11296437889
 21
130.07456366711
 31
0.0
  0
LINE
  5
728
330
A
100
AcDbEntity
  8
LEVEL005
  6
Continuous
 62
     6
370
    15
100
AcDbLine
 10
147.86296437889
 20
135.74123033377
 30
0.0
 11
147.86296437889
 21
129.07456366711
 31
0.0
  0
LINE
  5
729
330
A
100
AcDbEntity
  8
LEVEL005
  6
Continuous
 62
     6
370
    15
100
AcDbLine
 10
154.11296437889
 20
135.74123033377
 30
0.0
 11
154.11296437889
 21
129.07456366711
 31
0.0
  0
CIRCLE
  5
72A
330
A
100
AcDbEntity
  8
LEVEL005
  6
Continuous
 62
     6
370
    15
100
AcDbCircle
 10
147.86296437889
 20
130.07456366711
 30
0.0
 40
0.2
  0
CIRCLE
  5
72B
330
A
100
AcDbEntity
  8
LEVEL005
  6
Continuous
 62
     6
370
    15
100
AcDbCircle
 10
154.11296437889
 20
130.07456366711
 30
0.0
 40
0.2
  0
TEXT
  5
72C
330
A
100
AcDbEntity
  8
LEVEL005
 62
     6
370
    15
100
AcDbText
 10
148.23796437889
 20
131.07456366711
 30
0.0
 40
3.0
  1
５０
 41
0.8
100
AcDbText
  0
LINE
  5
72D
330
A
100
AcDbEntity
  8
LEVEL005
  6
Continuous
 62
     6
370
    15
100
AcDbLine
 10
29.737964378892
 20
150.80327494056
 30
0.0
 11
154.11296437889
 21
150.80327494056
 31
0.0
  0
LINE
  5
72E
330
A
100
AcDbEntity
  8
LEVEL005
  6
Continuous
 62
     6
370
    15
100
AcDbLine
 10
29.737964378892
 20
145.13660827389
 30
0.0
 11
29.737964378892
 21
151.80327494056
 31
0.0
  0
LINE
  5
72F
330
A
100
AcDbEntity
  8
LEVEL005
  6
Continuous
 62
     6
370
    15
100
AcDbLine
 10
154.11296437889
 20
145.13660827389
 30
0.0
 11
154.11296437889
 21
151.80327494056
 31
0.0
  0
CIRCLE
  5
730
330
A
100
AcDbEntity
  8
LEVEL005
  6
Continuous
 62
     6
370
    15
100
AcDbCircle
 10
29.737964378892
 20
150.80327494056
 30
0.0
 40
0.2
  0
CIRCLE
  5
731
330
A
100
AcDbEntity
  8
LEVEL005
  6
Continuous
 62
     6
370
    15
100
AcDbCircle
 10
154.11296437889
 20
150.80327494056
 30
0.0
 40
0.2
  0
TEXT
  5
732
330
A
100
AcDbEntity
  8
LEVEL005
 62
     6
370
    15
100
AcDbText
 10
87.925464378892
 20
151.80327494056
 30
0.0
 40
3.0
  1
９９５
 41
0.8
100
AcDbText
  0
LINE
  5
8B9
330
A
100
AcDbEntity
  8
LEVEL001
  6
Continuous
 62
     6
370
    15
100
AcDbLine
 10
183.2762470691
 20
213.16019330551
 30
0.0
 11
193.27624706919
 21
213.1601933054
 31
0.0
  0
LINE
  5
8BA
330
A
100
AcDbEntity
  8
LEVEL001
  6
Continuous
 62
     6
370
    15
100
AcDbLine
 10
183.2762470692
 20
222.12278044369
 30
0.0
 11
183.27624706909
 21
212.16019330551
 31
0.0
  0
LINE
  5
8BB
330
A
100
AcDbEntity
  8
LEVEL001
  6
Continuous
 62
     6
370
    15
100
AcDbLine
 10
193.2762470693
 20
222.12278044358
 30
0.0
 11
193.27624706918
 21
212.1601933054
 31
0.0
  0
CIRCLE
  5
8BC
330
A
100
AcDbEntity
  8
LEVEL001
  6
Continuous
 62
     6
370
    15
100
AcDbCircle
 10
183.2762470691
 20
213.16019330551
 30
0.0
 40
0.2
  0
CIRCLE
  5
8BD
330
A
100
AcDbEntity
  8
LEVEL001
  6
Continuous
 62
     6
370
    15
100
AcDbCircle
 10
193.27624706919
 20
213.1601933054
 30
0.0
 40
0.2
  0
TEXT
  5
8BE
330
A
100
AcDbEntity
  8
LEVEL001
 62
     6
370
    15
100
AcDbText
 10
185.52624706916
 20
214.16019330549
 30
0.0
 40
3.0
  1
１０
 41
0.8
100
AcDbText
  0
LINE
  5
8BF
330
A
100
AcDbEntity
  8
LEVEL001
  6
Continuous
 62
     6
370
    15
100
AcDbLine
 10
130.55726702436
 20
213.16019330551
 30
0.0
 11
145.55726702436
 21
213.16019330551
 31
0.0
  0
LINE
  5
8C0
330
A
100
AcDbEntity
  8
LEVEL001
  6
Continuous
 62
     6
370
    15
100
AcDbLine
 10
130.55726702436
 20
222.12278044369
 30
0.0
 11
130.55726702436
 21
212.16019330551
 31
0.0
  0
LINE
  5
8C1
330
A
100
AcDbEntity
  8
LEVEL001
  6
Continuous
 62
     6
370
    15
100
AcDbLine
 10
145.55726702436
 20
222.12278044369
 30
0.0
 11
145.55726702436
 21
212.16019330551
 31
0.0
  0
CIRCLE
  5
8C2
330
A
100
AcDbEntity
  8
LEVEL001
  6
Continuous
 62
     6
370
    15
100
AcDbCircle
 10
130.55726702436
 20
213.16019330551
 30
0.0
 40
0.2
  0
CIRCLE
  5
8C3
330
A
100
AcDbEntity
  8
LEVEL001
  6
Continuous
 62
     6
370
    15
100
AcDbCircle
 10
145.55726702436
 20
213.16019330551
 30
0.0
 40
0.2
  0
TEXT
  5
8C4
330
A
100
AcDbEntity
  8
LEVEL001
 62
     6
370
    15
100
AcDbText
 10
135.30726702436
 20
214.16019330551
 30
0.0
 40
3.0
  1
１５
 41
0.8
100
AcDbText
  0
LINE
  5
8C5
330
A
100
AcDbEntity
  8
LEVEL001
  6
Continuous
 62
     6
370
    15
100
AcDbLine
 10
203.18523161175
 20
262.92278044369
 30
0.0
 11
203.18523161175
 21
223.12278044369
 31
0.0
  0
LINE
  5
8C6
330
A
100
AcDbEntity
  8
LEVEL001
  6
Continuous
 62
     6
370
    15
100
AcDbLine
 10
194.2762470692
 20
262.92278044369
 30
0.0
 11
204.18523161175
 21
262.92278044369
 31
0.0
  0
LINE
  5
8C7
330
A
100
AcDbEntity
  8
LEVEL001
  6
Continuous
 62
     6
370
    15
100
AcDbLine
 10
194.2762470692
 20
223.12278044369
 30
0.0
 11
204.18523161175
 21
223.12278044369
 31
0.0
  0
CIRCLE
  5
8C8
330
A
100
AcDbEntity
  8
LEVEL001
  6
Continuous
 62
     6
370
    15
100
AcDbCircle
 10
203.18523161175
 20
262.92278044369
 30
0.0
 40
0.2
  0
CIRCLE
  5
8C9
330
A
100
AcDbEntity
  8
LEVEL001
  6
Continuous
 62
     6
370
    15
100
AcDbCircle
 10
203.18523161175
 20
223.12278044369
 30
0.0
 40
0.2
  0
TEXT
  5
8CA
330
A
100
AcDbEntity
  8
LEVEL001
 62
     6
370
    15
100
AcDbText
 10
202.18523161175
 20
240.27278044369
 30
0.0
 40
3.0
  1
４０
 50
90.0
 41
0.8
100
AcDbText
  0
LINE
  5
8CB
330
A
100
AcDbEntity
  8
LEVEL001
  6
Continuous
 62
     6
370
    15
100
AcDbLine
 10
193.2762470691
 20
272.83176498625
 30
0.0
 11
153.4762470691
 21
272.83176498589
 31
0.0
  0
LINE
  5
8CC
330
A
100
AcDbEntity
  8
LEVEL001
  6
Continuous
 62
     6
370
    15
100
AcDbLine
 10
193.27624706918
 20
263.9227804437
 30
0.0
 11
193.27624706909
 21
273.83176498625
 31
0.0
  0
LINE
  5
8CD
330
A
100
AcDbEntity
  8
LEVEL001
  6
Continuous
 62
     6
370
    15
100
AcDbLine
 10
153.47624706918
 20
263.92278044333
 30
0.0
 11
153.47624706909
 21
273.83176498589
 31
0.0
  0
CIRCLE
  5
8CE
330
A
100
AcDbEntity
  8
LEVEL001
  6
Continuous
 62
     6
370
    15
100
AcDbCircle
 10
193.2762470691
 20
272.83176498625
 30
0.0
 40
0.2
  0
CIRCLE
  5
8CF
330
A
100
AcDbEntity
  8
LEVEL001
  6
Continuous
 62
     6
370
    15
100
AcDbCircle
 10
153.4762470691
 20
272.83176498589
 30
0.0
 40
0.2
  0
TEXT
  5
8D0
330
A
100
AcDbEntity
  8
LEVEL001
 62
     6
370
    15
100
AcDbText
 10
170.62624706909
 20
273.83176498605
 30
0.0
 40
3.0
  1
４０
 41
0.8
100
AcDbText
  0
LINE
  5
8D1
330
A
100
AcDbEntity
  8
LEVEL001
  6
Continuous
 62
     6
370
    15
100
AcDbLine
 10
71.30241471785899
 20
261.21736160511
 30
0.0
 11
96.05115205938801
 21
236.46862426358
 31
0.0
  0
LINE
  5
8D2
330
A
100
AcDbEntity
  8
LEVEL001
  6
Continuous
 62
     6
370
    15
100
AcDbLine
 10
66.43337519358801
 20
256.34832208084
 30
0.0
 11
72.009521499046
 21
261.9244683863
 31
0.0
  0
LINE
  5
8D3
330
A
100
AcDbEntity
  8
LEVEL001
  6
Continuous
 62
     6
370
    15
100
AcDbLine
 10
91.18211253511701
 20
231.59958473931
 30
0.0
 11
96.758258840575
 21
237.17573104477
 31
0.0
  0
CIRCLE
  5
8D4
330
A
100
AcDbEntity
  8
LEVEL001
  6
Continuous
 62
     6
370
    15
100
AcDbCircle
 10
71.30241471785899
 20
261.21736160511
 30
0.0
 40
0.2
  0
CIRCLE
  5
8D5
330
A
100
AcDbEntity
  8
LEVEL001
  6
Continuous
 62
     6
370
    15
100
AcDbCircle
 10
96.05115205938801
 20
236.46862426358
 30
0.0
 40
0.2
  0
TEXT
  5
8D6
330
A
100
AcDbEntity
  8
LEVEL001
 62
     6
370
    15
100
AcDbText
 10
82.43934652154699
 20
251.49464336379
 30
0.0
 40
3.0
  1
３５
 50
315.0
 41
0.8
100
AcDbText
  0
LINE
  5
8D7
330
A
100
AcDbEntity
  8
LEVEL001
  6
Continuous
 62
     6
370
    15
100
AcDbLine
 10
60.15012210694401
 20
261.21736160511
 30
0.0
 11
35.401384765416
 21
236.46862426358
 31
0.0
  0
LINE
  5
8D8
330
A
100
AcDbEntity
  8
LEVEL001
  6
Continuous
 62
     6
370
    15
100
AcDbLine
 10
65.01916163121499
 20
256.34832208084
 30
0.0
 11
59.443015325757
 21
261.9244683863
 31
0.0
  0
LINE
  5
8D9
330
A
100
AcDbEntity
  8
LEVEL001
  6
Continuous
 62
     6
370
    15
100
AcDbLine
 10
40.27042428968599
 20
231.59958473931
 30
0.0
 11
34.694277984229
 21
237.17573104477
 31
0.0
  0
CIRCLE
  5
8DA
330
A
100
AcDbEntity
  8
LEVEL001
  6
Continuous
 62
     6
370
    15
100
AcDbCircle
 10
60.15012210694401
 20
261.21736160511
 30
0.0
 40
0.2
  0
CIRCLE
  5
8DB
330
A
100
AcDbEntity
  8
LEVEL001
  6
Continuous
 62
     6
370
    15
100
AcDbCircle
 10
35.401384765416
 20
236.46862426358
 30
0.0
 40
0.2
  0
TEXT
  5
8DC
330
A
100
AcDbEntity
  8
LEVEL001
 62
     6
370
    15
100
AcDbText
 10
45.12410300673
 20
247.60555606727
 30
0.0
 40
3.0
  1
３５
 50
45.00000000000199
 41
0.8
100
AcDbText
  0
LINE
  5
8DD
330
A
100
AcDbEntity
  8
LEVEL001
  6
Continuous
 62
     6
370
    15
100
AcDbLine
 10
90.435302772929
 20
219.61847244014
 30
0.0
 11
96.09215702242201
 21
225.27532668963
 31
0.0
  0
LINE
  5
8DE
330
A
100
AcDbEntity
  8
LEVEL001
  6
Continuous
 62
     6
370
    15
100
AcDbLine
 10
85.52525828562499
 20
224.52851692744
 30
0.0
 11
91.14240955411501
 21
218.91136565895
 31
0.0
  0
LINE
  5
8DF
330
A
100
AcDbEntity
  8
LEVEL001
  6
Continuous
 62
     6
370
    15
100
AcDbLine
 10
91.18211253511701
 20
230.18537117694
 30
0.0
 11
96.799263803608
 21
224.56821990845
 31
0.0
  0
CIRCLE
  5
8E0
330
A
100
AcDbEntity
  8
LEVEL001
  6
Continuous
 62
     6
370
    15
100
AcDbCircle
 10
90.435302772929
 20
219.61847244014
 30
0.0
 40
0.2
  0
CIRCLE
  5
8E1
330
A
100
AcDbEntity
  8
LEVEL001
  6
Continuous
 62
     6
370
    15
100
AcDbCircle
 10
96.09215702242201
 20
225.27532668963
 30
0.0
 40
0.2
  0
TEXT
  5
8E2
330
A
100
AcDbEntity
  8
LEVEL001
 62
     6
370
    15
100
AcDbText
 10
90.17013772998401
 20
220.76752095957
 30
0.0
 40
3.0
  1
７.５
 50
44.99999999999499
 41
0.8
100
AcDbText
  0
HATCH
  5
A01
330
A
100
AcDbEntity
  8
0
  6
Continuous
100
AcDbHatch
 10
0.0
 20
0.0
 30
0.0
210
0.0
220
0.0
230
1.0
  2
SOLID
 70
     1
 71
     1
 91
        9
 92
        7
 72
     0
 73
     1
 93
        6
 10
324.45000000004
 20
280.475
 10
319.05000000004
 20
280.475
 10
312.65000000004
 20
270.875
 10
319.05000000004
 20
261.275
 10
324.45000000004
 20
261.275
 10
318.05000000004
 20
270.875
 97
        4
330
13A
330
135
330
140
330
13B
 92
        7
 72
     0
 73
     1
 93
        6
 10
332.55000000004
 20
280.475
 10
327.15000000004
 20
280.475
 10
320.75000000004
 20
270.875
 10
327.15000000004
 20
261.275
 10
332.55000000004
 20
261.275
 10
326.15000000004
 20
270.875
 97
        4
330
146
330
141
330
14C
330
147
 92
        7
 72
     0
 73
     1
 93
        3
 10
333.35000000004
 20
270.875
 10
328.85000000004
 20
270.875
 10
333.35000000004
 20
263.675
 97
        2
330
118
330
11F
 92
        7
 72
     1
 73
     1
 93
        6
 10
344.15000000004
 20
272.075
 42
0.0
 10
336.95000000004
 20
272.075
 42
0.0
 10
336.95000000004
 20
261.275
 42
0.0
 10
340.55000000004
 20
261.275
 42
0.0
 10
340.55000000004
 20
263.075
 42
0.0
 10
344.15000000004
 20
263.075
 42
1.0
 97
        3
330
ED
330
B1
330
EC
 92
       22
 72
     1
 73
     1
 93
        4
 10
340.55000000004
 20
268.475
 42
0.0
 10
344.15000000004
 20
268.475
 42
-1.0
 10
344.15000000004
 20
266.675
 42
0.0
 10
340.55000000004
 20
266.675
 42
0.0
 97
        4
330
F1
330
F0
330
EF
330
EE
 92
        7
 72
     0
 73
     1
 93
        4
 10
358.55000000004
 20
272.075
 10
353.15000000004
 20
272.075
 10
345.95000000004
 20
261.275
 10
351.35000000004
 20
261.275
 97
        2
330
BE
330
F2
 92
       23
 72
     0
 73
     1
 93
        3
 10
357.35000000004
 20
268.11166923472
 10
352.79222051023
 20
261.275
 10
357.35000000004
 20
261.275
 97
        2
330
DA
330
F6
 92
        7
 72
     0
 73
     1
 93
       22
 10
371.15000000004
 20
268.475
 10
374.75000000004
 20
268.475
 10
374.75000000004
 20
261.275
 10
385.55000000004
 20
261.275
 10
385.55000000004
 20
264.875
 10
378.35000000004
 20
264.875
 10
378.35000000004
 20
265.775
 10
384.65000000004
 20
265.775
 10
384.65000000004
 20
267.575
 10
378.35000000004
 20
267.575
 10
378.35000000004
 20
268.475
 10
385.55000000004
 20
268.475
 10
385.55000000004
 20
272.075
 10
363.95000000004
 20
272.075
 10
363.95000000004
 20
268.475
 10
367.55000000004
 20
268.475
 10
367.55000000004
 20
264.875
 10
362.15000000004
 20
264.875
 10
362.15000000004
 20
272.075
 10
358.55000000004
 20
272.075
 10
358.55000000004
 20
261.275
 10
371.15000000004
 20
261.275
 97
        2
330
BE
330
10B
 92
        7
 72
     1
 73
     1
 93
        8
 10
396.35000000004
 20
264.875
 42
0.0
 10
390.95000000004
 20
264.875
 42
-1.0
 10
390.95000000004
 20
268.475
 42
0.0
 10
396.35000000004
 20
268.475
 42
0.0
 10
396.35000000004
 20
272.075
 42
0.0
 10
390.95000000004
 20
272.075
 42
1.0
 10
390.95000000004
 20
261.2750000000001
 42
0.0
 10
396.35000000004
 20
261.275
 42
0.0
 97
        7
330
111
330
112
330
113
330
E2
330
116
330
10F
330
110
 75
     1
 76
     1
 47
0.1180688714556397
 98
        9
 10
318.6882549024695
 20
274.8453077936651
 10
323.6507959620758
 20
272.9562075117278
 10
332.9851059702451
 20
269.0599329308184
 10
340.0744542930288
 20
269.8864153540485
 10
340.0744542930288
 20
269.8864153540485
 10
351.4174131902501
 20
265.5178678024204
 10
356.3799542498564
 20
262.8022829974871
 10
365.9505770543601
 20
263.2745580679716
 10
390.910566356717
 20
262.8006115841003
1001
GradientColor1ACI
1070
     5
1001
GradientColor2ACI
1070
     2
1001
ACAD
1010
0.0
1020
0.0
1030
0.0
  0
ENDSEC
  0
SECTION
  2
OBJECTS
  0
DICTIONARY
  5
3D
330
0
100
AcDbDictionary
281
     1
  3
ACAD_CIP_PREVIOUS_PRODUCT_INFO
350
980
  3
ACAD_COLOR
350
912
  3
ACAD_GROUP
350
3E
  3
ACAD_LAYOUT
350
915
  3
ACAD_MATERIAL
350
911
  3
ACAD_MLEADERSTYLE
350
97B
  3
ACAD_MLINESTYLE
350
3F
  3
ACAD_PLOTSETTINGS
350
916
  3
ACAD_PLOTSTYLENAME
350
90F
  3
ACAD_SCALELIST
350
969
  3
ACAD_TABLESTYLE
350
913
  3
ACAD_VISUALSTYLE
350
950
  3
ACDB_RECOMPOSE_DATA
350
AAA
  3
AcDbVariableDictionary
350
933
  3
DWGPROPS
350
AAB
  0
DICTIONARY
  5
98E
330
68
100
AcDbDictionary
280
     1
281
     1
  3
ACAD_LAYERSTATES
360
98F
  0
DICTIONARY
  5
983
330
38
100
AcDbDictionary
280
     1
281
     1
  3
ADSK_XREC_LAYER_RECONCILED
360
984
  0
DICTIONARY
  5
985
330
39
100
AcDbDictionary
280
     1
281
     1
  3
ADSK_XREC_LAYER_RECONCILED
360
986
  0
DICTIONARY
  5
987
330
3A
100
AcDbDictionary
280
     1
281
     1
  3
ADSK_XREC_LAYER_RECONCILED
360
988
  0
DICTIONARY
  5
989
330
3B
100
AcDbDictionary
280
     1
281
     1
  3
ADSK_XREC_LAYER_RECONCILED
360
98A
  0
DICTIONARY
  5
9B7
330
A
100
AcDbDictionary
280
     1
281
     1
  3
ACAD_SORTENTS
360
9B8
  0
XRECORD
  5
980
102
{ACAD_REACTORS
330
3D
102
}
330
3D
100
AcDbXrecord
280
     1
300
ACDLT
300
2012
300
ACDLT_F_S
  0
DICTIONARY
  5
912
102
{ACAD_REACTORS
330
3D
102
}
330
3D
100
AcDbDictionary
281
     1
  0
DICTIONARY
  5
3E
102
{ACAD_REACTORS
330
3D
102
}
330
0
100
AcDbDictionary
281
     1
  0
DICTIONARY
  5
915
102
{ACAD_REACTORS
330
3D
102
}
330
3D
100
AcDbDictionary
281
     1
  3
Model
350
917
  3
レイアウト1
350
918
  0
DICTIONARY
  5
911
102
{ACAD_REACTORS
330
3D
102
}
330
3D
100
AcDbDictionary
281
     1
  3
ByBlock
350
940
  3
ByLayer
350
938
  3
Global
350
948
  0
DICTIONARY
  5
97B
102
{ACAD_REACTORS
330
3D
102
}
330
3D
100
AcDbDictionary
281
     1
  3
Standard
350
97C
  0
DICTIONARY
  5
3F
102
{ACAD_REACTORS
330
3D
102
}
330
0
100
AcDbDictionary
281
     1
  3
STANDARD
350
40
  0
DICTIONARY
  5
916
102
{ACAD_REACTORS
330
3D
102
}
330
3D
100
AcDbDictionary
281
     1
  0
ACDBDICTIONARYWDFLT
  5
90F
102
{ACAD_REACTORS
330
3D
102
}
330
3D
100
AcDbDictionary
281
     1
  3
Normal
350
910
100
AcDbDictionaryWithDefault
340
910
  0
DICTIONARY
  5
969
102
{ACAD_REACTORS
330
3D
102
}
330
3D
100
AcDbDictionary
281
     1
  3
A0
350
96A
  3
A1
350
96B
  3
A2
350
96C
  3
A3
350
96D
  3
A4
350
96E
  3
A5
350
96F
  3
A6
350
970
  3
A7
350
971
  3
A8
350
972
  3
A9
350
973
  3
B0
350
974
  3
B1
350
975
  3
B2
350
976
  3
B3
350
977
  3
B4
350
978
  3
B5
350
979
  3
B6
350
97A
  0
DICTIONARY
  5
913
102
{ACAD_REACTORS
330
3D
102
}
330
3D
100
AcDbDictionary
281
     1
  3
Standard
350
914
  0
DICTIONARY
  5
950
102
{ACAD_REACTORS
330
3D
102
}
330
3D
100
AcDbDictionary
281
     1
  3
2dWireframe
350
956
  3
Basic
350
955
  3
Brighten
350
95C
  3
ColorChange
350
960
  3
Conceptual
350
959
  3
Dim
350
95B
  3
EdgeColorOff
350
968
  3
Facepattern
350
95F
  3
Flat
350
951
  3
FlatWithEdges
350
952
  3
Gouraud
350
953
  3
GouraudWithEdges
350
954
  3
Hidden
350
958
  3
JitterOff
350
966
  3
Linepattern
350
95E
  3
OverhangOff
350
967
  3
Realistic
350
95A
  3
Shaded
350
965
  3
Shaded with edges
350
964
  3
Shades of Gray
350
961
  3
Sketchy
350
962
  3
Thicken
350
95D
  3
Wireframe
350
957
  3
X-Ray
350
963
  0
XRECORD
  5
AAA
102
{ACAD_REACTORS
330
3D
102
}
330
3D
100
AcDbXrecord
280
     1
 90
        1
330
914
  0
DICTIONARY
  5
933
102
{ACAD_REACTORS
330
3D
102
}
330
3D
100
AcDbDictionary
281
     1
  3
CANNOSCALE
350
9AD
  3
CMLEADERSTYLE
350
9AB
  3
CTABLESTYLE
350
934
  3
DIMASSOC
350
935
  3
INDEXCTL
350
AA4
  3
LAYEREVAL
350
9AF
  3
LAYERNOTIFY
350
9B0
  3
LIGHTINGUNITS
350
9AE
  3
MSLTSCALE
350
9AC
  3
PROJECTNAME
350
936
  3
SORTENTS
350
AA3
  3
XCLIPFRAME
350
AA5
  0
XRECORD
  5
AAB
102
{ACAD_REACTORS
330
3D
102
}
330
3D
100
AcDbXrecord
280
     1
  1
DWGPROPS COOKIE
  2

  3

  4

  6

  7

  8
kg-paltec
  9

300
=
301
=
302
=
303
=
304
=
305
=
306
=
307
=
308
=
309
=
 40
0.0105051736111111
 41
2451212.682759178
 42
2458321.63742603
  1

 90
        0
  0
DICTIONARY
  5
98F
102
{ACAD_REACTORS
330
98E
102
}
330
98E
100
AcDbDictionary
281
     1
  0
XRECORD
  5
984
102
{ACAD_REACTORS
330
983
102
}
330
983
100
AcDbXrecord
280
     1
290
     1
  0
XRECORD
  5
986
102
{ACAD_REACTORS
330
985
102
}
330
985
100
AcDbXrecord
280
     1
290
     1
  0
XRECORD
  5
988
102
{ACAD_REACTORS
330
987
102
}
330
987
100
AcDbXrecord
280
     1
290
     1
  0
XRECORD
  5
98A
102
{ACAD_REACTORS
330
989
102
}
330
989
100
AcDbXrecord
280
     1
290
     1
  0
SORTENTSTABLE
  5
9B8
102
{ACAD_REACTORS
330
9B7
102
}
330
9B7
100
AcDbSortentsTable
330
A
331
168
  5
171
331
708
  5
711
331
182
  5
18B
331
72A
  5
733
331
8D0
  5
8D9
331
3B1
  5
3BA
331
F9
  5
FF
331
6BB
  5
6C4
331
113
  5
11F
331
49C
  5
4B7
331
677
  5
680
331
6DD
  5
6E6
331
6F7
  5
700
331
157
  5
160
331
179
  5
182
331
719
  5
722
331
8C7
  5
8D0
331
E8
  5
EE
331
8E1
  5
8EA
331
6AA
  5
6B3
331
688
  5
69F
331
135
  5
14E
331
6CC
  5
6D5
331
4AD
  5
4C8
331
146
  5
153
331
180
  5
189
331
728
  5
731
331
BD
  5
E8
331
8CE
  5
8D7
331
F7
  5
FD
331
697
  5
6A4
331
6B9
  5
6C2
331
111
  5
117
331
6DB
  5
6E4
331
6F5
  5
6FE
331
155
  5
15E
331
177
  5
180
331
717
  5
720
331
8C5
  5
8CE
331
686
  5
69D
331
8DF
  5
8E8
331
6A8
  5
6B1
331
6CA
  5
6D3
331
4AB
  5
4C6
331
706
  5
70F
331
4CD
  5
4E8
331
59A
  5
5A3
331
BB
  5
BE
331
8CC
  5
8D5
331
695
  5
6A2
331
F5
  5
FB
331
65C
  5
679
331
6B7
  5
6C0
331
10F
  5
115
331
6D9
  5
6E2
331
6F3
  5
6FC
331
153
  5
15C
331
175
  5
17E
331
715
  5
71E
331
64B
  5
658
331
8C3
  5
8CC
331
684
  5
697
331
8DD
  5
8E6
331
3BE
  5
3D4
331
6A6
  5
6AF
331
106
  5
10C
331
6C8
  5
6D1
331
120
  5
141
331
704
  5
70D
331
726
  5
72F
331
4CB
  5
4E6
331
B9
  5
BC
331
8CA
  5
8D3
331
65A
  5
677
331
F3
  5
F9
331
6B5
  5
6BE
331
10D
  5
113
331
6D7
  5
6E0
331
4B8
  5
4CD
331
6F1
  5
6FA
331
151
  5
15A
331
713
  5
71C
331
173
  5
17C
331
649
  5
656
331
8C1
  5
8CA
331
E2
  5
ED
331
682
  5
695
331
8DB
  5
8E4
331
3BC
  5
3D2
331
6A4
  5
6AD
331
104
  5
10A
331
6C6
  5
6CF
331
11E
  5
13B
331
4C9
  5
4E4
331
702
  5
70B
331
724
  5
72D
331
140
  5
151
331
A8
  5
A8
331
658
  5
670
331
8C8
  5
8D1
331
F1
  5
F7
331
6B3
  5
6BC
331
10B
  5
111
331
494
  5
4AF
331
6D5
  5
6DE
331
6EF
  5
6F8
331
14F
  5
158
331
171
  5
17A
331
18B
  5
1A1
331
711
  5
71A
331
647
  5
654
331
8BF
  5
8C8
331
E0
  5
EB
331
680
  5
68D
331
8D9
  5
8E2
331
3BA
  5
3C9
331
6A2
  5
6AB
331
102
  5
108
331
6C4
  5
6CD
331
6E6
  5
6EF
331
4C7
  5
4E2
331
700
  5
709
331
160
  5
16F
331
722
  5
72B
331
A6
  5
A6
331
6B1
  5
6BA
331
109
  5
10F
331
6D3
  5
6DC
331
6ED
  5
6F6
331
14D
  5
156
331
16F
  5
178
331
189
  5
198
331
8BD
  5
8C6
331
67E
  5
687
331
8D7
  5
8E0
331
3B8
  5
3C1
331
6A0
  5
6A9
331
100
  5
106
331
6C2
  5
6CB
331
4A3
  5
4B8
331
731
  5
73A
331
70F
  5
718
331
12B
  5
14C
331
6E4
  5
6ED
331
6FE
  5
707
331
15E
  5
16D
331
4E7
  5
4F0
331
656
  5
665
331
720
  5
729
331
EF
  5
F5
331
6D1
  5
6DA
331
6EB
  5
6F4
331
4D4
  5
4E9
331
16D
  5
176
331
70D
  5
716
331
187
  5
190
331
72F
  5
738
331
8BB
  5
8C4
331
665
  5
67C
331
8D5
  5
8DE
331
67C
  5
685
331
3B6
  5
3BF
331
69E
  5
6A7
331
FE
  5
104
331
6C0
  5
6C9
331
118
  5
13A
331
6E2
  5
6EB
331
13A
  5
14F
331
6FC
  5
705
331
15C
  5
16B
331
4E5
  5
4EE
331
17E
  5
187
331
654
  5
65D
331
68D
  5
6A0
331
ED
  5
F3
331
6AF
  5
6B8
331
71E
  5
727
331
4B0
  5
4CB
331
6E9
  5
6F2
331
16B
  5
174
331
70B
  5
714
331
185
  5
18E
331
72D
  5
736
331
8B9
  5
8C2
331
67A
  5
683
331
8D3
  5
8DC
331
3B4
  5
3BD
331
FC
  5
102
331
69C
  5
6A5
331
DA
  5
EA
331
6BE
  5
6C7
331
116
  5
12B
331
6E0
  5
6E9
331
6FA
  5
703
331
15A
  5
169
331
4E3
  5
4EC
331
17C
  5
185
331
71C
  5
725
331
652
  5
65B
331
B1
  5
BB
331
EB
  5
F1
331
6AD
  5
6B6
331
6CF
  5
6D8
331
169
  5
172
331
709
  5
712
331
4F2
  5
4FB
331
183
  5
18C
331
72B
  5
734
331
678
  5
681
331
8D1
  5
8DA
331
FA
  5
100
331
6BC
  5
6C5
331
114
  5
120
331
3B2
  5
3BB
331
6DE
  5
6E7
331
4BF
  5
4D4
331
6F8
  5
701
331
17A
  5
183
331
71A
  5
723
331
650
  5
659
331
8E2
  5
8EB
331
6AB
  5
6B4
331
6CD
  5
6D6
331
E9
  5
EF
331
158
  5
167
331
147
  5
154
331
4AE
  5
4C9
331
181
  5
18A
331
729
  5
732
331
BE
  5
E9
331
8CF
  5
8D8
331
3B0
  5
3B9
331
676
  5
67F
331
6BA
  5
6C3
331
112
  5
11E
331
49B
  5
4B0
331
6DC
  5
6E5
331
6F6
  5
6FF
331
156
  5
15F
331
178
  5
181
331
718
  5
721
331
8C6
  5
8CF
331
687
  5
69E
331
8E0
  5
8E9
331
6A9
  5
6B2
331
6CB
  5
6D4
331
4AC
  5
4C7
331
707
  5
710
331
167
  5
170
331
F8
  5
FE
331
BC
  5
DA
331
8CD
  5
8D6
331
F6
  5
FC
331
65D
  5
67A
331
6B8
  5
6C1
331
110
  5
116
331
6DA
  5
6E3
331
6F4
  5
6FD
331
154
  5
15D
331
716
  5
71F
331
176
  5
17F
331
48A
  5
493
331
8C4
  5
8CD
331
685
  5
69C
331
8DE
  5
8E7
331
6A7
  5
6B0
331
107
  5
10D
331
599
  5
5A2
331
39D
  5
3A6
331
6C9
  5
6D2
331
4AA
  5
4BF
331
4CC
  5
4E7
331
705
  5
70E
331
727
  5
730
331
121
  5
146
331
696
  5
6A3
331
BA
  5
BD
331
8CB
  5
8D4
331
65B
  5
678
331
F4
  5
FA
331
3AC
  5
3B5
331
6B6
  5
6BF
331
10E
  5
114
331
6D8
  5
6E1
331
130
  5
14D
331
6F2
  5
6FB
331
152
  5
15B
331
4DB
  5
4EA
331
714
  5
71D
331
488
  5
491
331
174
  5
17D
331
64A
  5
657
331
8C2
  5
8CB
331
683
  5
696
331
8DC
  5
8E5
331
3BD
  5
3D3
331
6A5
  5
6AE
331
105
  5
10B
331
6C7
  5
6D0
331
11F
  5
140
331
4CA
  5
4E5
331
141
  5
152
331
703
  5
70C
331
725
  5
72E
331
A9
  5
A9
331
670
  5
67E
331
659
  5
676
331
8C9
  5
8D2
331
F2
  5
F8
331
6B4
  5
6BD
331
10C
  5
112
331
6D6
  5
6DF
331
4B7
  5
4CC
331
6F0
  5
6F9
331
150
  5
159
331
172
  5
17B
331
18C
  5
1A2
331
712
  5
71B
331
648
  5
655
331
8C0
  5
8C9
331
E1
  5
EC
331
681
  5
68E
331
8DA
  5
8E3
331
66A
  5
67D
331
3BB
  5
3CA
331
6A3
  5
6AC
331
103
  5
109
331
6C5
  5
6CE
331
6E7
  5
6F0
331
4C8
  5
4E3
331
701
  5
70A
331
723
  5
72C
331
A7
  5
A7
331
F0
  5
F6
331
6B2
  5
6BB
331
10A
  5
110
331
6D4
  5
6DD
331
6EE
  5
6F7
331
14E
  5
157
331
710
  5
719
331
18A
  5
1A0
331
732
  5
73B
331
170
  5
179
331
8BE
  5
8C7
331
67F
  5
688
331
8D8
  5
8E1
331
3B9
  5
3C2
331
6A1
  5
6AA
331
A01
  5
B9
331
6C3
  5
6CC
331
101
  5
107
331
6E5
  5
6EE
331
4C6
  5
4DB
331
6FF
  5
708
331
15F
  5
16E
331
721
  5
72A
331
657
  5
66A
331
6B0
  5
6B9
331
108
  5
10E
331
6D2
  5
6DB
331
6EC
  5
6F5
331
14C
  5
155
331
16E
  5
177
331
70E
  5
717
331
188
  5
197
331
8BC
  5
8C5
331
8D6
  5
8DF
331
69F
  5
6A8
331
FF
  5
105
331
3B7
  5
3C0
331
6C1
  5
6CA
331
67D
  5
686
331
730
  5
739
331
6E3
  5
6EC
331
13B
  5
150
331
6FD
  5
706
331
15D
  5
16C
331
4E6
  5
4EF
331
17F
  5
188
331
655
  5
664
331
EE
  5
F4
331
68E
  5
6A1
331
71F
  5
728
331
6D0
  5
6D9
331
6EA
  5
6F3
331
16C
  5
175
331
70C
  5
715
331
186
  5
18F
331
72E
  5
737
331
8BA
  5
8C3
331
664
  5
67B
331
8D4
  5
8DD
331
FD
  5
103
331
69D
  5
6A6
331
3B5
  5
3BE
331
6BF
  5
6C8
331
117
  5
135
331
67B
  5
684
331
6E1
  5
6EA
331
6FB
  5
704
331
15B
  5
16A
331
4E4
  5
4ED
331
17D
  5
186
331
71D
  5
726
331
653
  5
65C
331
EC
  5
F2
331
3A4
  5
3AD
331
6AE
  5
6B7
331
6E8
  5
6F1
331
16A
  5
173
331
70A
  5
713
331
184
  5
18D
331
72C
  5
735
331
679
  5
682
331
8D2
  5
8DB
331
FB
  5
101
331
3B3
  5
3BC
331
6BD
  5
6C6
331
115
  5
126
331
6DF
  5
6E8
331
6F9
  5
702
331
159
  5
168
331
4E2
  5
4EB
331
17B
  5
184
331
71B
  5
724
331
48F
  5
4AA
331
651
  5
65A
331
3A2
  5
3AB
331
EA
  5
F0
331
6AC
  5
6B5
331
6CE
  5
6D7
331
4AF
  5
4CA
331
126
  5
147
331
B0
  5
B0
  0
LAYOUT
  5
917
102
{ACAD_XDICTIONARY
360
994
102
}
102
{ACAD_REACTORS
330
915
102
}
330
915
100
AcDbPlotSettings
  1

  2
クセロPDF2
  4

  6

 40
0.0
 41
0.0
 42
0.0
 43
0.0
 44
0.0
 45
0.0
 46
0.0
 47
0.0
 48
0.0
 49
0.0
140
0.0
141
0.0
142
1.0
143
1.0
 70
  1712
 72
     0
 73
     0
 74
     0
  7

 75
     0
147
1.0
148
0.0
149
0.0
100
AcDbLayout
  1
Model
 70
     1
 71
     0
 10
0.0
 20
0.0
 11
12.0
 21
9.0
 12
0.0
 22
0.0
 32
0.0
 14
0.0
 24
0.0
 34
0.0
 15
0.0
 25
0.0
 35
0.0
146
0.0
 13
0.0
 23
0.0
 33
0.0
 16
1.0
 26
0.0
 36
0.0
 17
0.0
 27
1.0
 37
0.0
 76
     0
330
A
331
92D
  0
LAYOUT
  5
918
102
{ACAD_XDICTIONARY
360
AAE
102
}
102
{ACAD_REACTORS
330
915
102
}
330
915
100
AcDbPlotSettings
  1

  2
クセロPDF2
  4

  6

 40
0.0
 41
0.0
 42
0.0
 43
0.0
 44
0.0
 45
0.0
 46
0.0
 47
0.0
 48
0.0
 49
0.0
140
0.0
141
0.0
142
1.0
143
1.0
 70
   688
 72
     0
 73
     0
 74
     5
  7

 75
    16
147
1.0
148
0.0
149
0.0
100
AcDbLayout
  1
レイアウト1
 70
     1
 71
     1
 10
0.0
 20
0.0
 11
12.0
 21
9.0
 12
0.0
 22
0.0
 32
0.0
 14
1.000000000000000E+20
 24
1.000000000000000E+20
 34
1.000000000000000E+20
 15
-1.000000000000000E+20
 25
-1.000000000000000E+20
 35
-1.000000000000000E+20
146
0.0
 13
0.0
 23
0.0
 33
0.0
 16
1.0
 26
0.0
 36
0.0
 17
0.0
 27
1.0
 37
0.0
 76
     0
330
B
  0
MATERIAL
  5
940
102
{ACAD_XDICTIONARY
360
941
102
}
102
{ACAD_REACTORS
330
911
102
}
330
911
100
AcDbMaterial
  1
ByBlock
 72
     0
 43
0.0208333333333333
 43
0.0
 43
0.0
 43
0.0
 43
0.0
 43
0.0208333333333333
 43
0.0
 43
0.0
 43
0.0
 43
0.0
 43
1.0
 43
0.0
 43
0.0
 43
0.0
 43
0.0
 43
1.0
 77
     0
 47
0.0208333333333333
 47
0.0
 47
0.0
 47
0.0
 47
0.0
 47
0.0208333333333333
 47
0.0
 47
0.0
 47
0.0
 47
0.0
 47
1.0
 47
0.0
 47
0.0
 47
0.0
 47
0.0
 47
1.0
171
     0
 49
0.0208333333333333
 49
0.0
 49
0.0
 49
0.0
 49
0.0
 49
0.0208333333333333
 49
0.0
 49
0.0
 49
0.0
 49
0.0
 49
1.0
 49
0.0
 49
0.0
 49
0.0
 49
0.0
 49
1.0
175
     0
142
0.0208333333333333
142
0.0
142
0.0
142
0.0
142
0.0
142
0.0208333333333333
142
0.0
142
0.0
142
0.0
142
0.0
142
1.0
142
0.0
142
0.0
142
0.0
142
0.0
142
1.0
179
     0
144
0.0208333333333333
144
0.0
144
0.0
144
0.0
144
0.0
144
0.0208333333333333
144
0.0
144
0.0
144
0.0
144
0.0
144
1.0
144
0.0
144
0.0
144
0.0
144
0.0
144
1.0
147
0.0208333333333333
147
0.0
147
0.0
147
0.0
147
0.0
147
0.0208333333333333
147
0.0
147
0.0
147
0.0
147
0.0
147
1.0
147
0.0
147
0.0
147
0.0
147
0.0
147
1.0
  0
MATERIAL
  5
938
102
{ACAD_XDICTIONARY
360
939
102
}
102
{ACAD_REACTORS
330
911
102
}
330
911
100
AcDbMaterial
  1
ByLayer
 72
     0
 43
0.0208333333333333
 43
0.0
 43
0.0
 43
0.0
 43
0.0
 43
0.0208333333333333
 43
0.0
 43
0.0
 43
0.0
 43
0.0
 43
1.0
 43
0.0
 43
0.0
 43
0.0
 43
0.0
 43
1.0
 77
     0
 47
0.0208333333333333
 47
0.0
 47
0.0
 47
0.0
 47
0.0
 47
0.0208333333333333
 47
0.0
 47
0.0
 47
0.0
 47
0.0
 47
1.0
 47
0.0
 47
0.0
 47
0.0
 47
0.0
 47
1.0
171
     0
 49
0.0208333333333333
 49
0.0
 49
0.0
 49
0.0
 49
0.0
 49
0.0208333333333333
 49
0.0
 49
0.0
 49
0.0
 49
0.0
 49
1.0
 49
0.0
 49
0.0
 49
0.0
 49
0.0
 49
1.0
175
     0
142
0.0208333333333333
142
0.0
142
0.0
142
0.0
142
0.0
142
0.0208333333333333
142
0.0
142
0.0
142
0.0
142
0.0
142
1.0
142
0.0
142
0.0
142
0.0
142
0.0
142
1.0
179
     0
144
0.0208333333333333
144
0.0
144
0.0
144
0.0
144
0.0
144
0.0208333333333333
144
0.0
144
0.0
144
0.0
144
0.0
144
1.0
144
0.0
144
0.0
144
0.0
144
0.0
144
1.0
147
0.0208333333333333
147
0.0
147
0.0
147
0.0
147
0.0
147
0.0208333333333333
147
0.0
147
0.0
147
0.0
147
0.0
147
1.0
147
0.0
147
0.0
147
0.0
147
0.0
147
1.0
  0
MATERIAL
  5
948
102
{ACAD_XDICTIONARY
360
949
102
}
102
{ACAD_REACTORS
330
911
102
}
330
911
100
AcDbMaterial
  1
Global
 72
     0
 43
0.0208333333333333
 43
0.0
 43
0.0
 43
0.0
 43
0.0
 43
0.0208333333333333
 43
0.0
 43
0.0
 43
0.0
 43
0.0
 43
1.0
 43
0.0
 43
0.0
 43
0.0
 43
0.0
 43
1.0
 77
     0
 47
0.0208333333333333
 47
0.0
 47
0.0
 47
0.0
 47
0.0
 47
0.0208333333333333
 47
0.0
 47
0.0
 47
0.0
 47
0.0
 47
1.0
 47
0.0
 47
0.0
 47
0.0
 47
0.0
 47
1.0
171
     0
 49
0.0208333333333333
 49
0.0
 49
0.0
 49
0.0
 49
0.0
 49
0.0208333333333333
 49
0.0
 49
0.0
 49
0.0
 49
0.0
 49
1.0
 49
0.0
 49
0.0
 49
0.0
 49
0.0
 49
1.0
175
     0
142
0.0208333333333333
142
0.0
142
0.0
142
0.0
142
0.0
142
0.0208333333333333
142
0.0
142
0.0
142
0.0
142
0.0
142
1.0
142
0.0
142
0.0
142
0.0
142
0.0
142
1.0
179
     0
144
0.0208333333333333
144
0.0
144
0.0
144
0.0
144
0.0
144
0.0208333333333333
144
0.0
144
0.0
144
0.0
144
0.0
144
1.0
144
0.0
144
0.0
144
0.0
144
0.0
144
1.0
147
0.0208333333333333
147
0.0
147
0.0
147
0.0
147
0.0
147
0.0208333333333333
147
0.0
147
0.0
147
0.0
147
0.0
147
1.0
147
0.0
147
0.0
147
0.0
147
0.0
147
1.0
  0
MLEADERSTYLE
  5
97C
102
{ACAD_XDICTIONARY
360
AA8
102
}
102
{ACAD_REACTORS
330
97B
102
}
330
97B
100
AcDbMLeaderStyle
170
     2
171
     1
172
     0
 90
        2
 40
0.0
 41
0.0
173
     1
 91
-1056964608
340
1D
 92
       -2
290
     1
 42
0.09
291
     1
 43
0.36
  3
Standard
 44
0.18
300

342
7
174
     1
178
     6
175
     1
176
     0
 93
-1056964608
 45
0.18
292
     0
297
     0
 46
0.18
 94
-1056964608
 47
1.0
 49
1.0
140
1.0
293
     1
141
0.0
294
     1
177
     0
142
1.0
295
     0
296
     0
143
0.125
1001
ACAD_MLEADERVER
1070
     2
  0
MLINESTYLE
  5
40
102
{ACAD_REACTORS
330
3F
102
}
330
0
100
AcDbMlineStyle
  2
STANDARD
 70
     0
  3

 62
   256
 51
90.0
 52
90.0
 71
     2
 49
0.5
 62
   256
  6
BYLAYER
 49
-0.5
 62
   256
  6
BYLAYER
  0
ACDBPLACEHOLDER
  5
910
102
{ACAD_REACTORS
330
90F
102
}
330
90F
  0
SCALE
  5
96A
102
{ACAD_REACTORS
330
969
102
}
330
969
100
AcDbScale
 70
     0
300
1:1
140
1.0
141
1.0
290
     1
  0
SCALE
  5
96B
102
{ACAD_REACTORS
330
969
102
}
330
969
100
AcDbScale
 70
     0
300
1/128" = 1'-0"
140
0.0078125
141
12.0
290
     0
  0
SCALE
  5
96C
102
{ACAD_REACTORS
330
969
102
}
330
969
100
AcDbScale
 70
     0
300
1/64" = 1'-0"
140
0.015625
141
12.0
290
     0
  0
SCALE
  5
96D
102
{ACAD_REACTORS
330
969
102
}
330
969
100
AcDbScale
 70
     0
300
1/32" = 1'-0"
140
0.03125
141
12.0
290
     0
  0
SCALE
  5
96E
102
{ACAD_REACTORS
330
969
102
}
330
969
100
AcDbScale
 70
     0
300
1/16" = 1'-0"
140
0.0625
141
12.0
290
     0
  0
SCALE
  5
96F
102
{ACAD_REACTORS
330
969
102
}
330
969
100
AcDbScale
 70
     0
300
3/32" = 1'-0"
140
0.09375
141
12.0
290
     0
  0
SCALE
  5
970
102
{ACAD_REACTORS
330
969
102
}
330
969
100
AcDbScale
 70
     0
300
1/8" = 1'-0"
140
0.125
141
12.0
290
     0
  0
SCALE
  5
971
102
{ACAD_REACTORS
330
969
102
}
330
969
100
AcDbScale
 70
     0
300
3/16" = 1'-0"
140
0.1875
141
12.0
290
     0
  0
SCALE
  5
972
102
{ACAD_REACTORS
330
969
102
}
330
969
100
AcDbScale
 70
     0
300
1/4" = 1'-0"
140
0.25
141
12.0
290
     0
  0
SCALE
  5
973
102
{ACAD_REACTORS
330
969
102
}
330
969
100
AcDbScale
 70
     0
300
3/8" = 1'-0"
140
0.375
141
12.0
290
     0
  0
SCALE
  5
974
102
{ACAD_REACTORS
330
969
102
}
330
969
100
AcDbScale
 70
     0
300
1/2" = 1'-0"
140
0.5
141
12.0
290
     0
  0
SCALE
  5
975
102
{ACAD_REACTORS
330
969
102
}
330
969
100
AcDbScale
 70
     0
300
3/4" = 1'-0"
140
0.75
141
12.0
290
     0
  0
SCALE
  5
976
102
{ACAD_REACTORS
330
969
102
}
330
969
100
AcDbScale
 70
     0
300
1" = 1'-0"
140
1.0
141
12.0
290
     0
  0
SCALE
  5
977
102
{ACAD_REACTORS
330
969
102
}
330
969
100
AcDbScale
 70
     0
300
1-1/2" = 1'-0"
140
1.5
141
12.0
290
     0
  0
SCALE
  5
978
102
{ACAD_REACTORS
330
969
102
}
330
969
100
AcDbScale
 70
     0
300
3" = 1'-0"
140
3.0
141
12.0
290
     0
  0
SCALE
  5
979
102
{ACAD_REACTORS
330
969
102
}
330
969
100
AcDbScale
 70
     0
300
6" = 1'-0"
140
6.0
141
12.0
290
     0
  0
SCALE
  5
97A
102
{ACAD_REACTORS
330
969
102
}
330
969
100
AcDbScale
 70
     0
300
1'-0" = 1'-0"
140
12.0
141
12.0
290
     0
  0
TABLESTYLE
  5
914
102
{ACAD_XDICTIONARY
360
AA6
102
}
102
{ACAD_REACTORS
330
913
102
}
330
913
100
AcDbTableStyle
  3
Standard
 70
     0
 71
     0
 40
0.06
 41
0.06
280
     0
281
     0
  7
STANDARD
140
0.18
170
     2
 62
     0
 63
     7
283
     0
274
    -2
284
     1
 64
     0
275
    -2
285
     1
 65
     0
276
    -2
286
     1
 66
     0
277
    -2
287
     1
 67
     0
278
    -2
288
     1
 68
     0
279
    -2
289
     1
 69
     0
  7
STANDARD
140
0.25
170
     5
 62
     0
 63
     7
283
     0
274
    -2
284
     1
 64
     0
275
    -2
285
     1
 65
     0
276
    -2
286
     1
 66
     0
277
    -2
287
     1
 67
     0
278
    -2
288
     1
 68
     0
279
    -2
289
     1
 69
     0
  7
STANDARD
140
0.18
170
     5
 62
     0
 63
     7
283
     0
274
    -2
284
     1
 64
     0
275
    -2
285
     1
 65
     0
276
    -2
286
     1
 66
     0
277
    -2
287
     1
 67
     0
278
    -2
288
     1
 68
     0
279
    -2
289
     1
 69
     0
  0
VISUALSTYLE
  5
956
102
{ACAD_XDICTIONARY
360
ABD
102
}
102
{ACAD_REACTORS
330
950
102
}
330
950
100
AcDbVisualStyle
  2
2dWireframe
 70
     4
 71
     0
 72
     2
 73
     0
 90
        0
 40
-0.6
 41
-30.0
 62
     5
 63
     7
 74
     1
 91
        4
 64
     7
 65
   257
 75
     1
175
     1
 42
1.0
 92
        0
 66
   257
 43
1.0
 76
     1
 77
     6
 78
     2
 67
     7
 79
     5
170
     0
171
     0
290
     0
174
     0
 93
        1
 44
0.0
173
     0
291
     0
 45
0.0
1001
ACAD
1000
AcDbSavedByObjectVersion
1070
     0
  0
VISUALSTYLE
  5
955
102
{ACAD_XDICTIONARY
360
ABB
102
}
102
{ACAD_REACTORS
330
950
102
}
330
950
100
AcDbVisualStyle
  2
Basic
 70
     7
 71
     1
 72
     0
 73
     1
 90
        0
 40
-0.6
 41
-30.0
 62
     5
 63
     7
 74
     0
 91
        4
 64
     7
 65
   257
 75
     1
175
     1
 42
1.0
 92
        8
 66
     7
 43
1.0
 76
     1
 77
     6
 78
     2
 67
     7
 79
     5
170
     0
171
     0
290
     0
174
     0
 93
        1
 44
0.0
173
     0
291
     1
 45
0.0
1001
ACAD
1000
AcDbSavedByObjectVersion
1070
     0
  0
VISUALSTYLE
  5
95C
102
{ACAD_XDICTIONARY
360
AC9
102
}
102
{ACAD_REACTORS
330
950
102
}
330
950
100
AcDbVisualStyle
  2
Brighten
 70
    12
 71
     2
 72
     2
 73
     0
 90
        0
 40
-0.6
 41
-30.0
 62
     5
 63
     7
 74
     1
 91
        4
 64
     7
 65
   257
 75
     1
175
     1
 42
1.0
 92
        8
 66
     7
 43
1.0
 76
     1
 77
     6
 78
     2
 67
     7
 79
     5
170
     0
171
     0
290
     0
174
     0
 93
        1
 44
50.0
173
     0
291
     1
 45
0.0
1001
ACAD
1000
AcDbSavedByObjectVersion
1070
     0
  0
VISUALSTYLE
  5
960
102
{ACAD_XDICTIONARY
360
AD1
102
}
102
{ACAD_REACTORS
330
950
102
}
330
950
100
AcDbVisualStyle
  2
ColorChange
 70
    16
 71
     2
 72
     2
 73
     3
 90
        0
 40
-0.6
 41
-30.0
 62
     5
 63
     8
 74
     1
 91
        4
 64
     7
 65
   257
 75
     1
175
     1
 42
1.0
 92
        8
 66
     8
 43
1.0
 76
     1
 77
     6
 78
     2
 67
     7
 79
     5
170
     0
171
     0
290
     0
174
     0
 93
        1
 44
0.0
173
     0
291
     1
 45
0.0
1001
ACAD
1000
AcDbSavedByObjectVersion
1070
     0
  0
VISUALSTYLE
  5
959
102
{ACAD_XDICTIONARY
360
AC3
102
}
102
{ACAD_REACTORS
330
950
102
}
330
950
100
AcDbVisualStyle
  2
Conceptual
 70
     9
 71
     3
 72
     2
 73
     0
 90
        0
 40
-0.6
 41
-30.0
 62
     5
 63
     7
 74
     2
 91
        2
 64
     7
 65
   257
 75
     1
175
     1
 42
179.0
 92
        8
 66
     7
 43
1.0
 76
     1
 77
     6
 78
     2
 67
     7
 79
     3
170
     0
171
     0
290
     0
174
     0
 93
        1
 44
0.0
173
     0
291
     0
 45
0.0
1001
ACAD
1000
AcDbSavedByObjectVersion
1070
     0
  0
VISUALSTYLE
  5
95B
102
{ACAD_XDICTIONARY
360
AC7
102
}
102
{ACAD_REACTORS
330
950
102
}
330
950
100
AcDbVisualStyle
  2
Dim
 70
    11
 71
     2
 72
     2
 73
     0
 90
        0
 40
-0.6
 41
-30.0
 62
     5
 63
     7
 74
     1
 91
        4
 64
     7
 65
   257
 75
     1
175
     1
 42
1.0
 92
        8
 66
     7
 43
1.0
 76
     1
 77
     6
 78
     2
 67
     7
 79
     5
170
     0
171
     0
290
     0
174
     0
 93
        1
 44
-50.0
173
     0
291
     1
 45
0.0
1001
ACAD
1000
AcDbSavedByObjectVersion
1070
     0
  0
VISUALSTYLE
  5
968
102
{ACAD_XDICTIONARY
360
AE1
102
}
102
{ACAD_REACTORS
330
950
102
}
330
950
100
AcDbVisualStyle
  2
EdgeColorOff
 70
    22
 71
     2
 72
     2
 73
     0
 90
        0
 40
-0.6
 41
-30.0
 62
     5
 63
     7
 74
     1
 91
        4
 64
     7
 65
   257
 75
     1
175
     1
 42
1.0
 92
        8
 66
     7
 43
1.0
 76
     1
 77
     6
 78
     2
 67
     7
 79
     5
170
     0
171
     0
290
     0
174
     0
 93
        1
 44
0.0
173
     0
291
     1
 45
0.0
1001
ACAD
1000
AcDbSavedByObjectVersion
1070
     0
  0
VISUALSTYLE
  5
95F
102
{ACAD_XDICTIONARY
360
ACF
102
}
102
{ACAD_REACTORS
330
950
102
}
330
950
100
AcDbVisualStyle
  2
Facepattern
 70
    15
 71
     2
 72
     2
 73
     0
 90
        0
 40
-0.6
 41
-30.0
 62
     5
 63
     7
 74
     1
 91
        4
 64
     7
 65
   257
 75
     1
175
     1
 42
1.0
 92
        8
 66
     7
 43
1.0
 76
     1
 77
     6
 78
     2
 67
     7
 79
     5
170
     0
171
     0
290
     0
174
     0
 93
        1
 44
0.0
173
     0
291
     1
 45
0.0
1001
ACAD
1000
AcDbSavedByObjectVersion
1070
     0
  0
VISUALSTYLE
  5
951
102
{ACAD_XDICTIONARY
360
AB3
102
}
102
{ACAD_REACTORS
330
950
102
}
330
950
100
AcDbVisualStyle
  2
Flat
 70
     0
 71
     2
 72
     1
 73
     1
 90
        2
 40
-0.6
 41
30.0
 62
     5
 63
     7
 74
     0
 91
        0
 64
     7
 65
   257
 75
     1
175
     1
 42
1.0
 92
        8
 66
     7
 43
1.0
 76
     1
 77
     6
 78
     2
 67
     7
 79
     5
170
     0
171
     0
290
     0
174
     0
 93
       13
 44
0.0
173
     0
291
     1
 45
0.0
1001
ACAD
1000
AcDbSavedByObjectVersion
1070
     0
  0
VISUALSTYLE
  5
952
102
{ACAD_XDICTIONARY
360
AB5
102
}
102
{ACAD_REACTORS
330
950
102
}
330
950
100
AcDbVisualStyle
  2
FlatWithEdges
 70
     1
 71
     2
 72
     1
 73
     1
 90
        2
 40
-0.6
 41
30.0
 62
     5
 63
     7
 74
     1
 91
        0
 64
     7
 65
   257
 75
     1
175
     1
 42
1.0
 92
        0
 66
   257
 43
1.0
 76
     1
 77
     6
 78
     2
 67
     7
 79
     5
170
     0
171
     0
290
     0
174
     0
 93
       13
 44
0.0
173
     0
291
     1
 45
0.0
1001
ACAD
1000
AcDbSavedByObjectVersion
1070
     0
  0
VISUALSTYLE
  5
953
102
{ACAD_XDICTIONARY
360
AB7
102
}
102
{ACAD_REACTORS
330
950
102
}
330
950
100
AcDbVisualStyle
  2
Gouraud
 70
     2
 71
     2
 72
     2
 73
     1
 90
        2
 40
-0.6
 41
30.0
 62
     5
 63
     7
 74
     0
 91
        0
 64
     7
 65
   257
 75
     1
175
     1
 42
1.0
 92
        0
 66
     7
 43
1.0
 76
     1
 77
     6
 78
     2
 67
     7
 79
     5
170
     0
171
     0
290
     0
174
     0
 93
       13
 44
0.0
173
     0
291
     1
 45
0.0
1001
ACAD
1000
AcDbSavedByObjectVersion
1070
     0
  0
VISUALSTYLE
  5
954
102
{ACAD_XDICTIONARY
360
AB9
102
}
102
{ACAD_REACTORS
330
950
102
}
330
950
100
AcDbVisualStyle
  2
GouraudWithEdges
 70
     3
 71
     2
 72
     2
 73
     1
 90
        2
 40
-0.6
 41
30.0
 62
     5
 63
     7
 74
     1
 91
        0
 64
     7
 65
   257
 75
     1
175
     1
 42
1.0
 92
        0
 66
   257
 43
1.0
 76
     1
 77
     6
 78
     2
 67
     7
 79
     5
170
     0
171
     0
290
     0
174
     0
 93
       13
 44
0.0
173
     0
291
     1
 45
0.0
1001
ACAD
1000
AcDbSavedByObjectVersion
1070
     0
  0
VISUALSTYLE
  5
958
102
{ACAD_XDICTIONARY
360
AC1
102
}
102
{ACAD_REACTORS
330
950
102
}
330
950
100
AcDbVisualStyle
  2
Hidden
 70
     6
 71
     1
 72
     2
 73
     2
 90
        0
 40
-0.6
 41
-30.0
 62
     5
 63
     7
 74
     2
 91
        2
 64
     7
 65
   257
 75
     2
175
     1
 42
40.0
 92
        0
 66
   257
 43
1.0
 76
     1
 77
     6
 78
     2
 67
     7
 79
     3
170
     0
171
     0
290
     0
174
     0
 93
        1
 44
0.0
173
     0
291
     0
 45
0.0
1001
ACAD
1000
AcDbSavedByObjectVersion
1070
     0
  0
VISUALSTYLE
  5
966
102
{ACAD_XDICTIONARY
360
ADD
102
}
102
{ACAD_REACTORS
330
950
102
}
330
950
100
AcDbVisualStyle
  2
JitterOff
 70
    20
 71
     2
 72
     2
 73
     0
 90
        0
 40
-0.6
 41
-30.0
 62
     5
 63
     7
 74
     1
 91
        4
 64
     7
 65
   257
 75
     1
175
     1
 42
1.0
 92
       10
 66
     7
 43
1.0
 76
     1
 77
     6
 78
     2
 67
     7
 79
     5
170
     0
171
     0
290
     0
174
     0
 93
        1
 44
0.0
173
     0
291
     1
 45
0.0
1001
ACAD
1000
AcDbSavedByObjectVersion
1070
     0
  0
VISUALSTYLE
  5
95E
102
{ACAD_XDICTIONARY
360
ACD
102
}
102
{ACAD_REACTORS
330
950
102
}
330
950
100
AcDbVisualStyle
  2
Linepattern
 70
    14
 71
     2
 72
     2
 73
     0
 90
        0
 40
-0.6
 41
-30.0
 62
     5
 63
     7
 74
     1
 91
        4
 64
     7
 65
   257
 75
     7
175
     7
 42
1.0
 92
        8
 66
     7
 43
1.0
 76
     1
 77
     6
 78
     2
 67
     7
 79
     5
170
     0
171
     0
290
     0
174
     0
 93
        1
 44
0.0
173
     0
291
     1
 45
0.0
1001
ACAD
1000
AcDbSavedByObjectVersion
1070
     0
  0
VISUALSTYLE
  5
967
102
{ACAD_XDICTIONARY
360
ADF
102
}
102
{ACAD_REACTORS
330
950
102
}
330
950
100
AcDbVisualStyle
  2
OverhangOff
 70
    21
 71
     2
 72
     2
 73
     0
 90
        0
 40
-0.6
 41
-30.0
 62
     5
 63
     7
 74
     1
 91
        4
 64
     7
 65
   257
 75
     1
175
     1
 42
1.0
 92
        9
 66
     7
 43
1.0
 76
     1
 77
     6
 78
     2
 67
     7
 79
     5
170
     0
171
     0
290
     0
174
     0
 93
        1
 44
0.0
173
     0
291
     1
 45
0.0
1001
ACAD
1000
AcDbSavedByObjectVersion
1070
     0
  0
VISUALSTYLE
  5
95A
102
{ACAD_XDICTIONARY
360
AC5
102
}
102
{ACAD_REACTORS
330
950
102
}
330
950
100
AcDbVisualStyle
  2
Realistic
 70
     8
 71
     2
 72
     3
 73
     0
 90
        2
 40
-0.6
 41
30.0
 62
     5
 63
     7
 74
     0
 91
        0
 64
     7
 65
   257
 75
     1
175
     1
 42
1.0
 92
        8
 66
   257
 43
1.0
 76
     1
 77
     6
 78
     2
 67
     7
 79
     3
170
     0
171
     0
290
     0
174
     0
 93
       13
 44
0.0
173
     0
291
     0
 45
0.0
1001
ACAD
1000
AcDbSavedByObjectVersion
1070
     0
  0
VISUALSTYLE
  5
965
102
{ACAD_XDICTIONARY
360
ADB
102
}
102
{ACAD_REACTORS
330
950
102
}
330
950
100
AcDbVisualStyle
  2
Shaded
 70
    27
 71
     2
 72
     2
 73
     1
 90
        2
 40
-0.6
 41
30.0
 62
     5
 63
     7
 74
     0
 91
        4
 64
     7
 65
   257
 75
     1
175
     1
 42
1.0
 92
        8
 66
   257
 43
1.0
 76
     1
 77
     6
 78
     2
 67
     8
 79
     3
170
     0
171
     0
290
     0
174
     0
 93
        5
 44
0.0
173
     0
291
     0
 45
0.0
1001
ACAD
1000
AcDbSavedByObjectVersion
1070
     0
  0
VISUALSTYLE
  5
964
102
{ACAD_XDICTIONARY
360
AD9
102
}
102
{ACAD_REACTORS
330
950
102
}
330
950
100
AcDbVisualStyle
  2
Shaded with edges
 70
    26
 71
     2
 72
     2
 73
     1
 90
        2
 40
-0.6
 41
30.0
 62
     5
 63
     7
 74
     1
 91
       10
 64
     7
 65
   257
 75
     2
175
     1
 42
1.0
 92
        8
 66
   257
 43
1.0
 76
     1
 77
     6
 78
     2
 67
     7
 79
     3
170
     0
171
     0
290
     0
174
     0
 93
        5
 44
0.0
173
     0
291
     0
 45
0.0
1001
ACAD
1000
AcDbSavedByObjectVersion
1070
     0
  0
VISUALSTYLE
  5
961
102
{ACAD_XDICTIONARY
360
AD3
102
}
102
{ACAD_REACTORS
330
950
102
}
330
950
100
AcDbVisualStyle
  2
Shades of Gray
 70
    23
 71
     2
 72
     2
 73
     3
 90
        0
 40
-0.6
 41
-30.0
 62
     5
 63
     7
 74
     2
 91
        2
 64
     7
 65
     7
 75
     1
175
     1
 42
40.0
 92
        8
 66
     7
 43
1.0
 76
     1
 77
     6
 78
     2
 67
     7
 79
     3
170
     0
171
     0
290
     0
174
     0
 93
        1
 44
0.0
173
     0
291
     0
 45
0.0
1001
ACAD
1000
AcDbSavedByObjectVersion
1070
     0
  0
VISUALSTYLE
  5
962
102
{ACAD_XDICTIONARY
360
AD5
102
}
102
{ACAD_REACTORS
330
950
102
}
330
950
100
AcDbVisualStyle
  2
Sketchy
 70
    24
 71
     1
 72
     2
 73
     2
 90
        0
 40
-0.6
 41
-30.0
 62
     5
 63
     7
 74
     2
 91
        2
 64
     7
 65
     7
 75
     1
175
     1
 42
40.0
 92
       11
 66
     7
 43
1.0
 76
     1
 77
     6
 78
     2
 67
     7
 79
     6
170
     0
171
     0
290
     0
174
     0
 93
        1
 44
0.0
173
     0
291
     0
 45
0.0
1001
ACAD
1000
AcDbSavedByObjectVersion
1070
     0
  0
VISUALSTYLE
  5
95D
102
{ACAD_XDICTIONARY
360
ACB
102
}
102
{ACAD_REACTORS
330
950
102
}
330
950
100
AcDbVisualStyle
  2
Thicken
 70
    13
 71
     2
 72
     2
 73
     0
 90
        0
 40
-0.6
 41
-30.0
 62
     5
 63
     7
 74
     1
 91
        4
 64
     7
 65
   257
 75
     1
175
     1
 42
1.0
 92
       12
 66
     7
 43
1.0
 76
     1
 77
     6
 78
     2
 67
     7
 79
     5
170
     0
171
     0
290
     0
174
     0
 93
        1
 44
0.0
173
     0
291
     1
 45
0.0
1001
ACAD
1000
AcDbSavedByObjectVersion
1070
     0
  0
VISUALSTYLE
  5
957
102
{ACAD_XDICTIONARY
360
ABF
102
}
102
{ACAD_REACTORS
330
950
102
}
330
950
100
AcDbVisualStyle
  2
Wireframe
 70
     5
 71
     0
 72
     2
 73
     0
 90
        0
 40
-0.6
 41
-30.0
 62
     5
 63
     7
 74
     1
 91
        4
 64
     7
 65
   257
 75
     1
175
     1
 42
1.0
 92
        0
 66
   257
 43
1.0
 76
     1
 77
     6
 78
     2
 67
     7
 79
     3
170
     0
171
     0
290
     0
174
     0
 93
        1
 44
0.0
173
     0
291
     0
 45
0.0
1001
ACAD
1000
AcDbSavedByObjectVersion
1070
     0
  0
VISUALSTYLE
  5
963
102
{ACAD_XDICTIONARY
360
AD7
102
}
102
{ACAD_REACTORS
330
950
102
}
330
950
100
AcDbVisualStyle
  2
X-Ray
 70
    25
 71
     2
 72
     2
 73
     1
 90
        1
 40
0.5
 41
-30.0
 62
     5
 63
     7
 74
     1
 91
        0
 64
     7
 65
   257
 75
     1
175
     1
 42
1.0
 92
        8
 66
     7
 43
1.0
 76
     1
 77
     6
 78
     2
 67
     7
 79
     3
170
     0
171
     0
290
     0
174
     0
 93
       13
 44
0.0
173
     0
291
     0
 45
0.0
1001
ACAD
1000
AcDbSavedByObjectVersion
1070
     0
  0
DICTIONARYVAR
  5
9AD
102
{ACAD_REACTORS
330
933
102
}
330
933
100
DictionaryVariables
280
     0
  1
1:1
  0
DICTIONARYVAR
  5
9AB
102
{ACAD_REACTORS
330
933
102
}
330
933
100
DictionaryVariables
280
     0
  1
STANDARD
  0
DICTIONARYVAR
  5
934
102
{ACAD_REACTORS
330
933
102
}
330
933
100
DictionaryVariables
280
     0
  1
STANDARD
  0
DICTIONARYVAR
  5
935
102
{ACAD_REACTORS
330
933
102
}
330
933
100
DictionaryVariables
280
     0
  1
1
  0
DICTIONARYVAR
  5
AA4
102
{ACAD_REACTORS
330
933
102
}
330
933
100
DictionaryVariables
280
     0
  1
0
  0
DICTIONARYVAR
  5
9AF
102
{ACAD_REACTORS
330
933
102
}
330
933
100
DictionaryVariables
280
     0
  1
1
  0
DICTIONARYVAR
  5
9B0
102
{ACAD_REACTORS
330
933
102
}
330
933
100
DictionaryVariables
280
     0
  1
15
  0
DICTIONARYVAR
  5
9AE
102
{ACAD_REACTORS
330
933
102
}
330
933
100
DictionaryVariables
280
     0
  1
0
  0
DICTIONARYVAR
  5
9AC
102
{ACAD_REACTORS
330
933
102
}
330
933
100
DictionaryVariables
280
     0
  1
0
  0
DICTIONARYVAR
  5
936
102
{ACAD_REACTORS
330
933
102
}
330
933
100
DictionaryVariables
280
     0
  1

  0
DICTIONARYVAR
  5
AA3
102
{ACAD_REACTORS
330
933
102
}
330
933
100
DictionaryVariables
280
     0
  1
127
  0
DICTIONARYVAR
  5
AA5
102
{ACAD_REACTORS
330
933
102
}
330
933
100
DictionaryVariables
280
     0
  1
2
  0
DICTIONARY
  5
994
330
917
100
AcDbDictionary
280
     1
281
     1
  3
ACAD_XREC_ROUNDTRIP
360
AAD
  3
ADSK_XREC_LAYOUTTHUMBNAIL
360
995
  0
DICTIONARY
  5
AAE
330
918
100
AcDbDictionary
280
     1
281
     1
  3
ACAD_XREC_ROUNDTRIP
360
AAF
  0
DICTIONARY
  5
941
330
940
100
AcDbDictionary
280
     1
281
     1
  3
ACAD_XREC_ROUNDTRIP
360
AB1
  3
BUMPTILE
360
943
  3
DIFFUSETILE
360
942
  3
OPACITYTILE
360
946
  3
REFLECTIONTILE
360
945
  3
REFRACTIONTILE
360
947
  3
SPECULARTILE
360
944
  0
DICTIONARY
  5
939
330
938
100
AcDbDictionary
280
     1
281
     1
  3
ACAD_XREC_ROUNDTRIP
360
AB0
  3
BUMPTILE
360
93B
  3
DIFFUSETILE
360
93A
  3
OPACITYTILE
360
93E
  3
REFLECTIONTILE
360
93D
  3
REFRACTIONTILE
360
93F
  3
SPECULARTILE
360
93C
  0
DICTIONARY
  5
949
330
948
100
AcDbDictionary
280
     1
281
     1
  3
ACAD_XREC_ROUNDTRIP
360
AB2
  3
BUMPTILE
360
94B
  3
DIFFUSETILE
360
94A
  3
OPACITYTILE
360
94E
  3
REFLECTIONTILE
360
94D
  3
REFRACTIONTILE
360
94F
  3
SPECULARTILE
360
94C
  0
DICTIONARY
  5
AA8
330
97C
100
AcDbDictionary
280
     1
281
     1
  3
ACAD_XREC_ROUNDTRIP
360
AA9
  0
DICTIONARY
  5
AA6
330
914
100
AcDbDictionary
280
     1
281
     1
  3
ACAD_ROUNDTRIP_2008_TABLESTYLE_CELLSTYLEMAP
360
AA7
  3
ACAD_XREC_ROUNDTRIP
360
AAC
  0
DICTIONARY
  5
ABD
330
956
100
AcDbDictionary
280
     1
281
     1
  3
ACAD_XREC_ROUNDTRIP
360
ABE
  0
DICTIONARY
  5
ABB
330
955
100
AcDbDictionary
280
     1
281
     1
  3
ACAD_XREC_ROUNDTRIP
360
ABC
  0
DICTIONARY
  5
AC9
330
95C
100
AcDbDictionary
280
     1
281
     1
  3
ACAD_XREC_ROUNDTRIP
360
ACA
  0
DICTIONARY
  5
AD1
330
960
100
AcDbDictionary
280
     1
281
     1
  3
ACAD_XREC_ROUNDTRIP
360
AD2
  0
DICTIONARY
  5
AC3
330
959
100
AcDbDictionary
280
     1
281
     1
  3
ACAD_XREC_ROUNDTRIP
360
AC4
  0
DICTIONARY
  5
AC7
330
95B
100
AcDbDictionary
280
     1
281
     1
  3
ACAD_XREC_ROUNDTRIP
360
AC8
  0
DICTIONARY
  5
AE1
330
968
100
AcDbDictionary
280
     1
281
     1
  3
ACAD_XREC_ROUNDTRIP
360
AE2
  0
DICTIONARY
  5
ACF
330
95F
100
AcDbDictionary
280
     1
281
     1
  3
ACAD_XREC_ROUNDTRIP
360
AD0
  0
DICTIONARY
  5
AB3
330
951
100
AcDbDictionary
280
     1
281
     1
  3
ACAD_XREC_ROUNDTRIP
360
AB4
  0
DICTIONARY
  5
AB5
330
952
100
AcDbDictionary
280
     1
281
     1
  3
ACAD_XREC_ROUNDTRIP
360
AB6
  0
DICTIONARY
  5
AB7
330
953
100
AcDbDictionary
280
     1
281
     1
  3
ACAD_XREC_ROUNDTRIP
360
AB8
  0
DICTIONARY
  5
AB9
330
954
100
AcDbDictionary
280
     1
281
     1
  3
ACAD_XREC_ROUNDTRIP
360
ABA
  0
DICTIONARY
  5
AC1
330
958
100
AcDbDictionary
280
     1
281
     1
  3
ACAD_XREC_ROUNDTRIP
360
AC2
  0
DICTIONARY
  5
ADD
330
966
100
AcDbDictionary
280
     1
281
     1
  3
ACAD_XREC_ROUNDTRIP
360
ADE
  0
DICTIONARY
  5
ACD
330
95E
100
AcDbDictionary
280
     1
281
     1
  3
ACAD_XREC_ROUNDTRIP
360
ACE
  0
DICTIONARY
  5
ADF
330
967
100
AcDbDictionary
280
     1
281
     1
  3
ACAD_XREC_ROUNDTRIP
360
AE0
  0
DICTIONARY
  5
AC5
330
95A
100
AcDbDictionary
280
     1
281
     1
  3
ACAD_XREC_ROUNDTRIP
360
AC6
  0
DICTIONARY
  5
ADB
330
965
100
AcDbDictionary
280
     1
281
     1
  3
ACAD_XREC_ROUNDTRIP
360
ADC
  0
DICTIONARY
  5
AD9
330
964
100
AcDbDictionary
280
     1
281
     1
  3
ACAD_XREC_ROUNDTRIP
360
ADA
  0
DICTIONARY
  5
AD3
330
961
100
AcDbDictionary
280
     1
281
     1
  3
ACAD_XREC_ROUNDTRIP
360
AD4
  0
DICTIONARY
  5
AD5
330
962
100
AcDbDictionary
280
     1
281
     1
  3
ACAD_XREC_ROUNDTRIP
360
AD6
  0
DICTIONARY
  5
ACB
330
95D
100
AcDbDictionary
280
     1
281
     1
  3
ACAD_XREC_ROUNDTRIP
360
ACC
  0
DICTIONARY
  5
ABF
330
957
100
AcDbDictionary
280
     1
281
     1
  3
ACAD_XREC_ROUNDTRIP
360
AC0
  0
DICTIONARY
  5
AD7
330
963
100
AcDbDictionary
280
     1
281
     1
  3
ACAD_XREC_ROUNDTRIP
360
AD8
  0
XRECORD
  5
AAD
102
{ACAD_REACTORS
330
994
102
}
330
994
100
AcDbXrecord
280
     1
102
SHADEPLOT
 70
     0
102
SHADEPLOTRESLEVEL
 70
     2
102
SHADEPLOTCUSTOMDPI
 70
   300
  0
XRECORD
  5
995
102
{ACAD_REACTORS
330
994
102
}
330
994
100
AcDbXrecord
280
     1
310
280000000001000088000000010008000000000000880000000000000000000000010000000000000000000000000000C8C8C8000000000000000000000000000000000000000000000000000000000000000000330000006600000099000000CC000000FF00000000330000333300006633000099330000CC330000FF3300
310
0000660000336600006666000099660000CC660000FF66000000990000339900006699000099990000CC990000FF99000000CC000033CC000066CC000099CC0000CCCC0000FFCC000000FF000033FF000066FF000099FF0000CCFF0000FFFF000000003300330033006600330099003300CC003300FF003300003333003333
310
33006633330099333300CC333300FF33330000663300336633006666330099663300CC663300FF66330000993300339933006699330099993300CC993300FF99330000CC330033CC330066CC330099CC3300CCCC3300FFCC330000FF330033FF330066FF330099FF3300CCFF3300FFFF330000006600330066006600660099
310
006600CC006600FF00660000336600333366006633660099336600CC336600FF33660000666600336666006666660099666600CC666600FF66660000996600339966006699660099996600CC996600FF99660000CC660033CC660066CC660099CC6600CCCC6600FFCC660000FF660033FF660066FF660099FF6600CCFF6600
310
FFFF660000009900330099006600990099009900CC009900FF00990000339900333399006633990099339900CC339900FF33990000669900336699006666990099669900CC669900FF66990000999900339999006699990099999900CC999900FF99990000CC990033CC990066CC990099CC9900CCCC9900FFCC990000FF99
310
0033FF990066FF990099FF9900CCFF9900FFFF99000000CC003300CC006600CC009900CC00CC00CC00FF00CC000033CC003333CC006633CC009933CC00CC33CC00FF33CC000066CC003366CC006666CC009966CC00CC66CC00FF66CC000099CC003399CC006699CC009999CC00CC99CC00FF99CC0000CCCC0033CCCC0066CC
310
CC0099CCCC00CCCCCC00FFCCCC0000FFCC0033FFCC0066FFCC0099FFCC00CCFFCC00FFFFCC000000FF003300FF006600FF009900FF00CC00FF00FF00FF000033FF003333FF006633FF009933FF00CC33FF00FF33FF000066FF003366FF006666FF009966FF00CC66FF00FF66FF000099FF003399FF006699FF009999FF00CC
310
99FF00FF99FF0000CCFF0033CCFF0066CCFF0099CCFF00CCCCFF00FFCCFF0000FFFF0033FFFF0066FFFF0099FFFF00CCFFFF00FFFFFF00000000000D0D0D001A1A1A00282828003535350043434300505050005D5D5D006B6B6B00787878008686860093939300A1A1A100AEAEAE00BBBBBB00C9C9C900D6D6D600E4E4E400
310
F1F1F100FFFFFF000000000000000000000000000000000000000000000000000000000000000000000000000000000000000000000000000000000000000000000000000000000000000000000000000000000000000000000000000000000000000000000000000000000000000000000000000000000000000000000000
310
00000000000000000000000000000000000000000000000000000000000000000000000000000000000000000000000000000000000000000000000000000000000000000000000000000000000000000000000000000000000000000000000000000000000000000000000000000000000000000000000000000000000000
310
00000000000000000000000000000000000000000000000000000000000000000000000000000000000000000000000000000000000000000000000000000000000000000000000000000000000000000000000000000000000000000000000000000000000000000000000000000000000000000000000000000000000000
310
00000000000000000000000000000000000000282828282828282828282828282828282828282828282828282828282828282828282828282828282828282828282828282828282828282828282828282828280000000000000000000000000000000000000000000000000000000000000000000000000000000000000000
310
00000000000000000000000000000000000000000000000000000000000000000000000000000000000000000000000000000000000000000000000000000000000000000000000000000000000000000000000000000000000000000000000000000000000000000000000000000000000000000000000000000000000000
310
00000000000000000000000000000000000000000028002828282828282828282828282828282828282828282828282828282828282828282828282828282828282828282828282828282828282828282828280028000000000000000000000000000000000000000000000000000000000000000000000000000000000000
310
00000000000000000000000000000000000000000000000000000000000000000000000000000000000000000000000000000000000000000000000000000000000000000000000000000000000000000000000000000000000000000000000000000000000000000000000000000000000000000000000000000000000000
310
000000000000000000000000000000000000000000000028002800000000000000000000000000000000000000000000000000000000000000000000000000000000000000280000F5F50000280000F5F5F5000028002800000000000000000000000000000000000000000000000000000000000000000000000000000000
310
00000000000000000000000000000000000000000000000000000000000000000000000000000000000000000000000000000000000000000000000000000000000000000000000000000000000000000000000000000000000000000000000000000000000000000000000000000000000000000000000000000000000000
310
00000000000000000000000000000000000000000000000000280028000000000000000000000000000000ECECECECECECECECECECEC0000000000000000000000000000000000280000F5F50000280000F5F5F500002800280000000000000000000000000000000000000000000000000000000000000000000000000000
310
00000000000000000000000000000000000000000000000000000000000000000000000000000000000000000000000000000000000000000000000000000000000000000000000000000000000000000000000000000000000000000000000000000000000000000000000000000000000000000000000000000000000000
310
000000000000000000000000000000000000000000000000000000280028000000000000000000000000000000ECECECECECECECECECECEC0000000000000000000000000000000000282828282828282828282828282828280028000000000000000000000000000000000000000000000000000000000000000000000000
310
00000000000000000000000000000000000000000000000000000000000000000000000000000000000000000000000000000000000000000000000000000000000000000000000000000000000000000000000000000000000000000000000000000000000000000000000000000000000000000000000000000000000000
310
000000000000000000000000000000000000000000000000000000000028002800C3C3C3C3C3C3C3C3C3C3C3C3C3C3C3C3C3C3C3C3C3C3C3C3C3C3C3C3C3C3C3C3C3C3C3C3C3C3C30000002800F5F5F5F500282828282828282828002800000000000000000000000000000000000000000000000000000000000000000000
310
00000000000000000000000000000000000000000000000000000000000000000000000000000000000000000000000000000000000000000000000000000000000000000000000000000000000000000000000000000000000000000000000000000000000000000000000000000000000000000000000000000000000000
310
0000000000000000000000000000000000000000000000000000000000000028002800C3C3C3C3DCDCDCC3C3DCDCDCC3DCDCC3C3DCDCDCC3DCDCDCC3C3DCDCC3DCDCDCC3C3DCDCDCC3C30000002800F5F5F5F50028282828282828282800280000000000000000000000000000000000000000000000000000000000000000
310
00000000000000000000000000000000000000000000000000000000000000000000000000000000000000000000000000000000000000000000000000000000000000000000000000000000000000000000000000000000000000000000000000000000000000000000000000000000000000000000000000000000000000
310
00000000000000000000000000000000000000000000000000000000000000000028002800C3C3C3C3C3C3C3C3C3C3C3C3C3C3C3C3C3C3C3C3C3C3C3C3C3C3C3C3C3C3C3C3C3C3C3C3C3C3C300000028282828282828282828F5F5F5F5F5F50028000000000000000000000000000000000000000000000000000000000000
310
00000000000000000000000000000000000000000000000000000000000000000000000000000000000000000000000000000000000000000000000000000000000000000000000000000000000000000000000000000000000000000000000000000000000000000000000000000000000000000000000000000000000000
310
000000000000000000000000000000000000000000000000000000000000000000000028002800C3C3C3C3C3C3C3C3C3C3C3C3C3C3C3C3C3C3C3C3C3C3C3C3C3C3C3C3C3C3C3C3C3C3C3C3C3C3C3000000280000000000F5F5F5F5000000000028002800000000000000000000000000000000000000000000000000000000
310
00000000000000000000000000000000000000000000000000000000000000000000000000000000000000000000000000000000000000000000000000000000000000000000000000000000000000000000000000000000000000000000000000000000000000000000000000000000000000000000000000000000000000
310
0000000000000000000000000000000000000000000000000000000000000000000000000028002800ECECECECECEC000000000000000000000000C3C3C3000000000000000000000000000000000000000000280000000000F5F5F5F500000000002800280000000000000000000000000000000000000000000000000000
310
00000000000000000000000000000000000000000000000000000000000000000000000000000000000000000000000000000000000000000000000000000000000000000000000000000000000000000000000000000000000000000000000000000000000000000000000000000000000000000000000000000000000000
310
000000000000000000000000000000000000000000000000000000000000000000000000000000280028ECECECECECECEC000000000000000000000000000000000000000000000000000000000000000000000000282828282828282828282828282828280028000000000000000000000000000000000000000000000000
310
00000000000000000000000000000000000000000000000000000000000000000000000000000000000000000000000000000000000000000000000000000000000000000000000000000000000000000000000000000000000000000000000000000000000000000000000000000000000000000000000000000000000000
310
00000000000000000000000000000000000000000000000000000000000000000000000000000000002800280000000000000000000000000000000000000000000000000000000000000000000000000000000000000028ECECECECECECECECECECECEC000028002800000000000000000000000000000000000000000000
310
00000000000000000000000000000000000000000000000000000000000000000000000000000000000000000000000000000000000000000000000000000000000000000000000000000000000000000000000000000000000000000000000000000000000000000000000000000000000000000000000000000000000000
310
0000000000000000000000000000000000000000000000000000000000000000000000000000000000000028002800C3C3C3C3C3C3C3C3C3C3C3C3C3C3C3C3C3C3C3C3C3C3C3C3C3C3C3C3C3C30000000000000000000000002800000000000000000000000000002800280000000000000000000000000000000000000000
310
00000000000000000000000000000000000000000000000000000000000000000000000000000000000000000000000000000000000000000000000000000000000000000000000000000000000000000000000000000000000000000000000000000000000000000000000000000000000000000000000000000000000000
310
00000000000000000000000000000000000000000000000000000000000000000000000000000000000000000028002800C3C3C3DCDCDCC3C3DCDCDCC3DCDCC3C3DCDCDCC3DCDCDCC3C3DCDCDCC300000000000000000000000000280000000000000000000000000000280028000000000000000000000000000000000000
310
00000000000000000000000000000000000000000000000000000000000000000000000000000000000000000000000000000000000000000000000000000000000000000000000000000000000000000000000000000000000000000000000000000000000000000000000000000000000000000000000000000000000000
310
000000000000000000000000000000000000000000000000000000000000000000000000000000000000000000000028002800C3C3C3C3C3C3C3C3C3C3C3C3C3C3C3C3C3C3C3C3C3C3C3C3C3C3C3C3C3C300000000000000000000000028000000000000000000000000000028002800000000000000000000000000000000
310
00000000000000000000000000000000000000000000000000000000000000000000000000000000000000000000000000000000000000000000000000000000000000000000000000000000000000000000000000000000000000000000000000000000000000000000000000000000000000000000000000000000000000
310
0000000000000000000000000000000000000000000000000000000000000000000000000000000000000000000000000028002800C3C3C3C3C3C3C3C3C3C3C3C3C3C3C3C3C3C3C3C3C3C3C3C3C3C3C3C3C3C30000000000000000000000002800000000000000000000000000002800280000000000000000000000000000
310
00000000000000000000000000000000000000000000000000000000000000000000000000000000000000000000000000000000000000000000000000000000000000000000000000000000000000000000000000000000000000000000000000000000000000000000000000000000000000000000000000000000000000
310
00000000000000000000000000000000000000000000000000000000000000000000000000000000000000000000000000000028002800ECECECECECEC0000000000000000C3C30000000000000000000000000000000000000000000000000000280000000000000000000000000000280028000000000000000000000000
310
00000000000000000000000000000000000000000000000000000000000000000000000000000000000000000000000000000000000000000000000000000000000000000000000000000000000000000000000000000000000000000000000000000000000000000000000000000000000000000000000000000000000000
310
0000000000000000000000000000000000000000000000000000000000000000000000000000000000000000000000000000000000280028ECECECECECECEC00000000000000000000000000000000000000000000000000000000000000000000000028000000000000000000000000000028002800000000000000000000
310
00000000000000000000000000000000000000000000000000000000000000000000000000000000000000000000000000000000000000000000000000000000000000000000000000000000000000000000000000000000000000000000000000000000000000000000000000000000000000000000000000000000000000
310
00000000000000000000000000000000000000000000000000000000000000000000000000000000000000000000000000000000000000280028000000000000000000000000000000000000000000000000000000000000000000000000000000000000002800000000000000000000000000002800280000000000000000
310
00000000000000000000000000000000000000000000000000000000000000000000000000000000000000000000000000000000000000000000000000000000000000000000000000000000000000000000000000000000000000000000000000000000000000000000000000000000000000000000000000000000000000
310
00000000000000000000000000000000000000000000000000000000000000000000000000000000000000000000000000000000000000000028002800C3C3C3C3C3C3C3C3C3C3C3C3C3C3C3C3C3C3C3C300000000000000000000000000000000000000000000280000000000000000000000000000280028000000000000
310
00000000000000000000000000000000000000000000000000000000000000000000000000000000000000000000000000000000000000000000000000000000000000000000000000000000000000000000000000000000000000000000000000000000000000000000000000000000000000000000000000000000000000
310
000000000000000000000000000000000000000000000000000000000000000000000000000000000000000000000000000000000000000000000028002800C3C3C3DCDCDCC3C3DCDCC3DCDCDCC3C3DCDCC3C30000000000000000000000000000000000000000000028000000000000000000000000000028002800000000
310
00000000000000000000000000000000000000000000000000000000000000000000000000000000000000000000000000000000000000000000000000000000000000000000000000000000000000000000000000000000000000000000000000000000000000000000000000000000000000000000000000000000000000
310
0000000000000000000000000000000000000000000000000000000000000000000000000000000000000000000000000000000000000000000000000028002800C3C3C3C3C3C3C3C3C3C3C3C3C3C3C3C3C3C3C3C3000000000000000000000000000000000000000000002800000000000000000000000000002800280000
310
00000000000000000000000000000000000000000000000000000000000000000000000000000000000000000000000000000000000000000000000000000000000000000000000000000000000000000000000000000000000000000000000000000000000000000000000000000000000000000000000000000000000000
310
00000000000000000000000000000000000000000000000000000000000000000000000000000000000000000000000000000000000000000000000000000028002800C3C3C3C3C3C3C3C3C3C3C3C3C3C3C3C3C3C3C3C3000000000000000000000000000000000000000000002800ECECECEC000000000000000000280028
310
00000000000000000000000000000000000000000000000000000000000000000000000000000000000000000000000000000000000000000000000000000000000000000000000000000000000000000000000000000000000000000000000000000000000000000000000000000000000000000000000000000000000000
310
000000000000000000000000000000000000000000000000000000000000000000000000000000000000000000000000000000000000000000000000000000000028002800ECECECECECEC000000C3C30000000000000000000000000000000000000000000000000000000000000028ECECECECECEC000000000000000028
310
00280000000000000000000000000000000000000000000000000000000000000000000000000000000000000000000000000000000000000000000000000000000000000000000000000000000000000000000000000000000000000000000000000000000000000000000000000000000000000000000000000000000000
310
00000000000000000000000000000000000000000000000000000000000000000000000000000000000000000000000000000000000000000000000000000000000000280028ECECECECECECEC00000000000000000000000000000000000000000000000000000000000000000000000028ECECECECECEC00ECECECEC0000
310
00280028000000000000000000000000000000000000000000000000000000000000000000000000000000000000000000000000000000000000000000000000000000000000000000000000000000000000000000000000000000000000000000000000000000000000000000000000000000000000000000000000000000
310
00000000000000000000000000000000000000000000000000000000000000000000000000000000000000000000000000000000000000000000000000000000000000000028002800000000000000000000000000000000000000000000000000000000000000000000000000000000000000280000ECECECECECECECECEC
310
00000028002800000000000000000000000000000000000000000000000000000000000000000000000000000000000000000000000000000000000000000000000000000000000000000000000000000000000000000000000000000000000000000000000000000000000000000000000000000000000000000000000000
310
000000000000000000000000000000000000000000000000000000000000000000000000000000000000000000000000000000000000000000000000000000000000000000000028002800000000000000000000000000000000000000000000000000000000000000000000000000000000000000280000ECECECECECECEC
310
ECEC0000002800280000000000000000000000000000000000000000000000000000000000000000000000000000000000000000000000000000000000000000000000000000000000000000000000000000000000000000000000000000000000000000000000000000000000000000000000000000000000000000000000
310
000000000000000000000000000000000000000000000000000000000000000000000000000000000000000000000000000000000000000000000000000000000000000000000000002800280000000000ECECECEC0000000000000000000000ECECECEC000000000000000000000000000000000000002800ECECECECECEC
310
ECECECEC000000280028000000000000000000000000000000000000000000000000000000000000000000000000000000000000000000000000000000000000000000000000000000000000000000000000000000000000000000000000000000000000000000000000000000000000000000000000000000000000000000
310
00000000000000000000000000000000000000000000000000000000000000000000000000000000000000000000000000000000000000000000000000000000000000000000000000000028002800000000ECECECECECEC0000000000000000ECECECECECECECEC00000000000000000000000000000000002800ECECECEC
310
ECECECECECECEC000028002800000000000000000000000000000000000000000000000000000000000000000000000000000000000000000000000000000000000000000000000000000000000000000000000000000000000000000000000000000000000000000000000000000000000000000000000000000000000000
310
000000000000000000000000000000000000000000000000000000000000000000000000000000000000000000000000000000000000000000000000000000000000000000000000000000000028002800000000ECECECECECEC0000000000000000ECECECEC00ECECEC0000000000000000000000000000000000280000EC
310
ECECECECECEC00000000002800280000000000000000000000000000000000000000000000000000000000000000000000000000000000000000000000000000000000000000000000000000000000000000000000000000000000000000000000000000000000000000000000000000000000000000000000000000000000
310
000000000000000000000000000000000000000000000000000000000000000000000000000000000000000000000000000000000000000000000000000000000000000000000000000000000000002800280000000000000000000000000000000000000000000000000000000000000000000000000000000000000028EC
310
ECECECECECECEC000000000000280028000000000000000000000000000000000000000000000000000000000000000000000000000000000000000000000000000000000000000000000000000000000000000000000000000000000000000000000000000000000000000000000000000000000000000000000000000000
310
0000000000000000000000000000000000000000000000000000000000000000000000000000000000000000000000000000000000000000000000000000000000000000000000000000000000000000002800280000000000000000000000000000000000C300C300000000C300C300000000000000000000000000000000
310
28ECECECEC0000000000000000000028002800000000000000000000000000000000000000000000000000000000000000000000000000000000000000000000000000000000000000000000000000000000000000000000000000000000000000000000000000000000000000000000000000000000000000000000000000
310
00000000000000000000000000000000000000000000000000000000000000000000000000000000000000000000000000000000000000000000000000000000000000000000000000000000000000000000002800280000000000000000000000C30000000000C3C3C300000000C3C3C30000000000000000000000000000
310
00002828282828282828282828282828282800280000000000000000000000000000000000000000000000000000000000000000000000000000000000000000000000000000000000000000000000000000000000000000000000000000000000000000000000000000000000000000000000000000000000000000000000
310
0000000000000000000000000000000000000000000000000000000000000000000000000000000000000000000000000000000000000000000000000000000000000000000000000000000000000000000000000028002800000000280000C30000C3C30000000000C328C3C3000000C328C3C3C300000000000000000000
310
000000002800000000ECECECECEC0000000000280028000000000000000000000000000000000000000000000000000000000000000000000000000000000000000000000000000000000000000000000000000000000000000000000000000000000000000000000000000000000000000000000000000000000000000000
310
000000000000000000000000000000000000000000000000000000000000000000000000000000000000000000000000000000000000000000000000000000000000000000000000000000000000000000000000000000280028000000C3282800C3002828C3000000000028002800C30000280028C3000000000000000000
310
0000000000002828000000ECECECECEC000000000028002800000000000000000000000000000000000000000000000000000000000000000000000000000000000000000000000000000000000000000000000000000000000000000000000000000000000000000000000000000000000000000000000000000000000000
310
00000000000000000000000000000000000000000000000000000000000000000000000000000000000000000000000000000000000000000000000000000000000000000000000000000000000000000000000000000000002800280000C3280028BEC3BE2828C300000000002828280000C300282828C300000000000000
310
00000000000000002828282828282828282828282828282800280000000000000000000000000000000000000000000000000000000000000000000000000000000000000000000000000000000000000000000000000000000000000000000000000000000000000000000000000000000000000000000000000000000000
310
00000000000000000000000000000000000000000000000000000000000000000000000000000000000000000000000000000000000000000000000000000000000000000000000000000000000000000000000000000000000000280028000000C3282828282828C30000000000002828280000C3C3282828C30000000000
310
000000000000000000002800ECECECECECECECECECECEC0000280028000000000000000000000000000000000000000000000000000000000000000000000000000000000000000000000000000000000000000000000000000000000000000000000000000000000000000000000000000000000000000000000000000000
310
000000000000000000000000000000000000000000000000000000000000000000000000000000000000000000000000000000000000000000000000000000000000000000000000000000000000000000000000000000000000000000280028000000C3C300282800C3C300000000000028002800000000280028C3000000
310
00000000000000000000000028280000000000000000000000000028002800000000000000000000000000000000000000000000000000000000000000000000000000000000000000000000000000000000000000000000000000000000000000000000000000000000000000000000000000000000000000000000000000
310
000000000000000000000000000000000000000000000000000000000000000000000000000000000000000000000000000000000000000000000000000000000000000000000000000000000000000000000000000000000000000000000028002800000000C3C300C300C3C30000000000002828282828282828C328C300
310
00000000000000000000000000002828282828282828282828282828282800280000000000000000000000000000000000000000000000000000000000000000000000000000000000000000000000000000000000000000000000000000000000000000000000000000000000000000000000000000000000000000000000
310
00000000000000000000000000000000000000000000000000000000000000000000000000000000000000000000000000000000000000000000000000000000000000000000000000000000000000000000000000000000000000000000000000280028000000000000C3C3C30000000000000000282828C32828282828C3
310
C3C30000000000000000000000000000280028282828282828282828282828280028000000000000000000000000000000000000000000000000000000000000000000000000000000000000000000000000000000000000000000000000000000000000000000000000000000000000000000000000000000000000000000
310
0000000000000000000000000000000000000000000000000000000000000000000000000000000000000000000000000000000000000000000000000000000000000000000000000000000000000000000000000000000000000000000000000000002800280000000000000000000000000000000000000000C300000000
310
00C3C300000000000000000000000000000028282828282828282828282828282828002800000000000000000000000000000000000000000000000000000000000000000000000000000000000000000000000000000000000000000000000000000000000000000000000000000000000000000000000000000000000000
310
00000000000000000000000000000000000000000000000000000000000000000000000000000000000000000000000000000000000000000000000000000000000000000000000000000000000000000000000000000000000000000000000000000000002800280000000000000000000000000000000000000000C3C3C3
310
C3C3C3C3000000000000000000000000000000002800282828282828282828282800002800280000000000000000000000000000000000000000000000000000000000000000000000000000000000000000000000000000000000000000000000000000000000000000000000000000000000000000000000000000000000
310
00000000000000000000000000000000000000000000000000000000000000000000000000000000000000000000000000000000000000000000000000000000000000000000000000000000000000000000000000000000000000000000000000000000000000280028282828282828282828282828282828282828282828
310
28282828282828282828282828282828282828282828282828282828282828282828282828280028000000000000000000000000000000000000000000000000000000000000000000000000000000000000000000000000000000000000000000000000000000000000000000000000000000000000000000000000000000
310
00000000000000000000000000000000000000000000000000000000000000000000000000000000000000000000000000000000000000000000000000000000000000000000000000000000000000000000000000000000000000000000000000000000000000000028000000000000000000000000000000000000000000
310
00000000000000000000000000000000000000000000000000000000000000000000000000000000002800000000000000000000000000000000000000000000000000000000000000000000000000000000000000000000000000000000000000000000000000000000000000000000000000000000000000000000000000
310
00000000000000000000000000000000000000000000000000000000000000000000000000000000000000000000000000000000000000000000000000000000000000000000000000000000000000000000000000000000000000000000000000000000000000000000002828282828282828282828282828282828282828
310
28282828282828282828282828282828282828282828282828282828282828282828282828282828282828280000000000000000000000000000000000000000000000000000000000000000000000000000000000000000000000000000000000000000000000000000000000000000000000000000000000000000000000
310
00000000000000000000000000000000000000000000000000000000000000000000000000000000000000000000000000000000000000000000000000000000000000000000000000000000000000000000000000000000000000000000000000000000000000000000000000280000000000000000000000000000000000
310
00000000000000000000000000000000000000000000000000000000000000000000000000000000000000000028000000000000000000000000000000000000000000000000000000000000000000000000000000000000000000000000000000000000000000000000000000000000000000000000000000000000000000
310
00000000000000000000000000000000000000000000000000000000000000000000000000000000000000000000000000000000000000000000000000000000000000000000000000000000000000000000000000000000000000000000000000000000000000000000000000000028002828282828282828282828282828
310
2828ECECECECECECECECECECEC282828282828282828282828282828282828282828282828282828282828282828002800000000000000000000000000000000000000000000000000000000000000000000000000000000000000000000000000000000000000000000000000000000000000000000000000000000000000
310
000000000000000000000000000000000000000000000000000000000000000000000000000000000000000000000000000000000000000000000000000000000000000000000000000000000000000000000000000000000000000000000000000000000000000000000000000000000028002800C30000000000C3000000
310
000000C3ECECECECECC3ECECECECEC00C3000000C30000000000000000000000280000F5F50000280000F5F5F500002800280000000000000000000000000000000000000000000000000000000000000000000000000000000000000000000000000000000000000000000000000000000000000000000000000000000000
310
0000000000000000000000000000000000000000000000000000000000000000000000000000000000000000000000000000000000000000000000000000000000000000000000000000000000000000000000000000000000000000000000000000000000000000000000000000000000000028002800C3C3C3C3C3C3C3C3
310
C3C3C3C3C3C3C3C3C3C3C3C3C3C3C3C3C3C3C3C3C3C3C30000000000000000000000282828000000002828282800000000280028000000000000000000000000000000000000000000000000000000000000000000000000000000000000000000000000000000000000000000000000000000000000000000000000000000
310
00000000000000000000000000000000000000000000000000000000000000000000000000000000000000000000000000000000000000000000000000000000000000000000000000000000000000000000000000000000000000000000000000000000000000000000000000000000000000000028002800C3C3C3C3C3C3
310
C3C3C3C3C3C3C3C3C3C3C3C3C3C3C3C3C3C3C3C3C3C3C3C3C3000000000000000000000028282828282828282828282828282828002800000000000000000000000000000000000000000000000000000000000000000000000000000000000000000000000000000000000000000000000000000000000000000000000000
310
0000000000000000000000000000000000000000000000000000000000000000000000000000000000000000000000000000000000000000000000000000000000000000000000000000000000000000000000000000000000000000000000000000000000000000000000000000000000000000000000280028ECDCDCDCC3
310
F5DCC3F5DCDCC3DCDCC3DCDCC3DCDCC3DCDCC3F5DCDCC3DCDCC3DC00000000000000000000002800F5F5F5F50028282828282828282800280000000000000000000000000000000000000000000000000000000000000000000000000000000000000000000000000000000000000000000000000000000000000000000000
310
00000000000000000000000000000000000000000000000000000000000000000000000000000000000000000000000000000000000000000000000000000000000000000000000000000000000000000000000000000000000000000000000000000000000000000000000000000000000000000000000000280028DCDCF5
310
C3DCDCC3DCDCC3DCDCC3DCDCF5C3DCDCC3DCDCC3DCDCC3DCDCC3F5DCDC000000000000000000000028280000000000282828F5F5F5F5F5F50028000000000000000000000000000000000000000000000000000000000000000000000000000000000000000000000000000000000000000000000000000000000000000000
310
000000000000000000000000000000000000000000000000000000000000000000000000000000000000000000000000000000000000000000000000000000000000000000000000000000000000000000000000000000000000000000000000000000000000000000000000000000000000000000000000000000280028DC
310
C3C3C3C3C3C3C3C3C3C3C3C3C3C3C3C3C3C3C3C3C3C3C3C3C3C3C3C3C3C3C3000000000000000000000028282828282828282828F5F5F5F5F5F5002800000000000000000000000000000000000000000000000000000000000000000000000000000000000000000000000000000000000000000000000000000000000000
310
00000000000000000000000000000000000000000000000000000000000000000000000000000000000000000000000000000000000000000000000000000000000000000000000000000000000000000000000000000000000000000000000000000000000000000000000000000000000000000000000000000000002800
310
2800C3C3C3C3C3C3C3C3C3C3C3C3C3C3C3C3C3C3C3C3C3C3C3C3C3C3C3C3C3C3C30000000000000000000000280000000000F5F5F5F500000000002800280000000000000000000000000000000000000000000000000000000000000000000000000000000000000000000000000000000000000000000000000000000000
310
00000000000000000000000000000000000000000000000000000000000000000000000000000000000000000000000000000000000000000000000000000000000000000000000000000000000000000000000000000000000000000000000000000000000000000000000000000000000000000000000000000000000000
310
28002800C3C3C3C3C3C3C3C3C3C3C3C3C3C3C3C3C3C3C3C3C3C3C3C3C3C3C3C3C3C3C30000000000000000000000282828000000000000000000000000280028000000000000000000000000000000000000000000000000000000000000000000000000000000000000000000000000000000000000000000000000000000
310
00000000000000000000000000000000000000000000000000000000000000000000000000000000000000000000000000000000000000000000000000000000000000000000000000000000000000000000000000000000000000000000000000000000000000000000000000000000000000000000000000000000000000
310
0000280028ECECECECECEC00000000000000000000C3C30000000000000000000000000000000000000000000000000028ECECECECECECECECECECECEC282828002800000000000000000000000000000000000000000000000000000000000000000000000000000000000000000000000000000000000000000000000000
310
00000000000000000000000000000000000000000000000000000000000000000000000000000000000000000000000000000000000000000000000000000000000000000000000000000000000000000000000000000000000000000000000000000000000000000000000000000000000000000000000000000000000000
310
0000000028002800C3C3C3C3C3C3C3C3C3C3C3C3C3C3C3C3C3C3C3C3C3C3C3C300000000000000000000000000000000000028ECECECECECECECECECECECEC00002800280000000000000000000000000000000000000000000000000000000000000000000000000000000000000000000000000000000000000000000000
310
00000000000000000000000000000000000000000000000000000000000000000000000000000000000000000000000000000000000000000000000000000000000000000000000000000000000000000000000000000000000000000000000000000000000000000000000000000000000000000000000000000000000000
310
00000000000028002800C3C3C3C3C3C3C3C3C3C3C3C3C3C3C3C3C3C3C3C3C3C3C3C3000000000000000000000000000000000000280000000000000000000000000000280028000000000000000000000000000000000000000000000000000000000000000000000000000000000000000000000000000000000000000000
310
00000000000000000000000000000000000000000000000000000000000000000000000000000000000000000000000000000000000000000000000000000000000000000000000000000000000000000000000000000000000000000000000000000000000000000000000000000000000000000000000000000000000000
310
0000000000000000280028DCC3C3C3C3DCDCC3C3C3C3DCDCC3C3DCC3DCDCC3C3DCC3C3C300000000000000000000000000000000000028000000000000000000000000000028002800000000000000000000000000000000000000000000000000000000000000000000000000000000000000000000000000000000000000
310
00000000000000000000000000000000000000000000000000000000000000000000000000000000000000000000000000000000000000000000000000000000000000000000000000000000000000000000000000000000000000000000000000000000000000000000000000000000000000000000000000000000000000
310
00000000000000000000280028ECDCDCDCC3F5DCC3DCDCC3F5DCC3DCDCC3F5DCC3DCDCC3F5DC0000000000000000000000000000000000002800000000000000000000000000002800280000000000000000000000000000000000000000000000000000000000000000000000000000000000000000000000000000000000
310
00000000000000000000000000000000000000000000000000000000000000000000000000000000000000000000000000000000000000000000000000000000000000000000000000000000000000000000000000000000000000000000000000000000000000000000000000000000000000000000000000000000000000
310
000000000000000000000000280028DCC3F5C3DCDCC3DCF5C3DCDCC3DCDCC3DCDCC3DCDCC3DCDCC3000000000000000000000000000000000000280000000000000000000000000000280028000000000000000000000000000000000000000000000000000000000000000000000000000000000000000000000000000000
310
00000000000000000000000000000000000000000000000000000000000000000000000000000000000000000000000000000000000000000000000000000000000000000000000000000000000000000000000000000000000000000000000000000000000000000000000000000000000000000000000000000000000000
310
000000000000000000000000000028002800C3C3C3C3C3C3C3C3C3C3C3C3C3C3C3C3C3C3C3C3C3C3C3C300000000000000000000000000000000000028000000000000000000000000000028002800000000000000000000000000000000000000000000000000000000000000000000000000000000000000000000000000
310
00000000000000000000000000000000000000000000000000000000000000000000000000000000000000000000000000000000000000000000000000000000000000000000000000000000000000000000000000000000000000000000000000000000000000000000000000000000000000000000000000000000000000
310
0000000000000000000000000000000028002800C3C3C3C3C3C3C3C3C3C3C3C3C3C3C3C3C3C3C3C3C3C3C3C30000000000000000000000000000000000002800000000000000000000000000002800280000000000000000000000000000000000000000000000000000000000000000000000000000000000000000000000
310
00000000000000000000000000000000000000000000000000000000000000000000000000000000000000000000000000000000000000000000000000000000000000000000000000000000000000000000000000000000000000000000000000000000000000000000000000000000000000000000000000000000000000
310
000000000000000000000000000000000000280028ECC3C3C3C3C3C3C3C3C3C3C3C3C3C3C3C3C3C3C3C3C3C3C3C3000000000000000000000000000000000000280000000000000000000000000000280028000000000000000000000000000000000000000000000000000000000000000000000000000000000000000000
310
00000000000000000000000000000000000000000000000000000000000000000000000000000000000000000000000000000000000000000000000000000000000000000000000000000000000000000000000000000000000000000000000000000000000000000000000000000000000000000000000000000000000000
310
0000000000000000000000000000000000000000280028ECECECECECEC0000000000000000000000000000000000000000000000000000000000000000000000000028000000000000000000000000000028002800000000000000000000000000000000000000000000000000000000000000000000000000000000000000
310
00000000000000000000000000000000000000000000000000000000000000000000000000000000000000000000000000000000000000000000000000000000000000000000000000000000000000000000000000000000000000000000000000000000000000000000000000000000000000000000000000000000000000
310
0000000000000000000000000000000000000000000028002800C3C3C3C3C3C3C3C3C3C3C3C3C3C3C3C300000000000000000000000000000000000000000000000000002800ECECECEC0000000000000000002800280000000000000000000000000000000000000000000000000000000000000000000000000000000000
310
00000000000000000000000000000000000000000000000000000000000000000000000000000000000000000000000000000000000000000000000000000000000000000000000000000000000000000000000000000000000000000000000000000000000000000000000000000000000000000000000000000000000000
310
00000000000000000000000000000000000000000000000028002800C3C3C3C3C3C3C3C3C3C3C3C3C3C3C3C300ECECECECECECEC00000000000000000000000000000000000028ECECECECECEC0000000000000000280028000000000000000000000000000000000000000000000000000000000000000000000000000000
310
00000000000000000000000000000000000000000000000000000000000000000000000000000000000000000000000000000000000000000000000000000000000000000000000000000000000000000000000000000000000000000000000000000000000000000000000000000000000000000000000000000000000000
310
0000000000000000000000000000000000000000000000000000280028DCC3DCDCC3DCC3C3DCC3DCDCC3DCDCC3C30000000000000000000000000000000000000000000000000000280000ECECECEC0000ECECECEC000028002800000000000000000000000000000000000000000000000000000000000000000000000000
310
00000000000000000000000000000000000000000000000000000000000000000000000000000000000000000000000000000000000000000000000000000000000000000000000000000000000000000000000000000000000000000000000000000000000000000000000000000000000000000000000000000000000000
310
00000000000000000000000000000000000000000000000000000000280028ECDCF5F5F5DCF5DCF5F5F5F5F5DCF5F5DC0000000000000000000000000000000000000000000000000000280000ECECECECECECECECECEC00002800280000000000000000000000000000000000000000000000000000000000000000000000
310
00000000000000000000000000000000000000000000000000000000000000000000000000000000000000000000000000000000000000000000000000000000000000000000000000000000000000000000000000000000000000000000000000000000000000000000000000000000000000000000000000000000000000
310
000000000000000000000000000000000000000000000000000000000000280028DCC3DCC3DCDCC3DCC3F5DCC3DCDCC3DCC30000000000000000000000000000000000000000000000000000280000ECECECECECECECECECEC0000280028000000000000000000000000000000000000000000000000000000000000000000
310
00000000000000000000000000000000000000000000000000000000000000000000000000000000000000000000000000000000000000000000000000000000000000000000000000000000000000000000000000000000000000000000000000000000000000000000000000000000000000000000000000000000000000
310
000000000000000000000000000000000000000000000000000000000000000028002800C3C3C3C3C3C3C3C3C3C3C3C3C3C3C3C30000000000000000000000000000000000000000000000000000280000ECECECECEC00ECECECEC000028002800000000000000000000000000000000000000000000000000000000000000
310
00000000000000000000000000000000000000000000000000000000000000000000000000000000000000000000000000000000000000000000000000000000000000000000000000000000000000000000000000000000000000000000000000000000000000000000000000000000000000000000000000000000000000
310
0000000000000000000000000000000000000000000000000000000000000000000028002800C3C3C3C3C3C3C3C3C3C3C3C3C3C3C3C300000000000000000000000000000000000000000000000000002800ECECECECECEC0000ECECEC00002800280000000000000000000000000000000000000000000000000000000000
310
00000000000000000000000000000000000000000000000000000000000000000000000000000000000000000000000000000000000000000000000000000000000000000000000000000000000000000000000000000000000000000000000000000000000000000000000000000000000000000000000000000000000000
310
000000000000000000000000000000000000000000000000000000000000000000000000280028ECC3C3C3C3C3C3C3C3C3C3C3C3C3C3C3C300000000000000000000000000000000000000000000000000002800ECECECECECECECECECECEC0000280028000000000000000000000000000000000000000000000000000000
310
00000000000000000000000000000000000000000000000000000000000000000000000000000000000000000000000000000000000000000000000000000000000000000000000000000000000000000000000000000000000000000000000000000000000000000000000000000000000000000000000000000000000000
310
0000000000000000000000000000000000000000000000000000000000000000000000000000280028ECECECECECEC0000000000000000000000000000000000000000000000000000000000000000000000000028000000ECECECECECECECEC00000028002800000000000000000000000000000000000000000000000000
310
00000000000000000000000000000000000000000000000000000000000000000000000000000000000000000000000000000000000000000000000000000000000000000000000000000000000000000000000000000000000000000000000000000000000000000000000000000000000000000000000000000000000000
310
00000000000000000000000000000000000000000000000000000000000000000000000000000000280028000000000000ECECECECECECECECEC00000000000000000000000000ECECECECECECECECECEC00000000002800ECECECECECECECECECEC0000002800280000000000000000000000000000000000000000000000
310
00000000000000000000000000000000000000000000000000000000000000000000000000000000000000000000000000000000000000000000000000000000000000000000000000000000000000000000000000000000000000000000000000000000000000000000000000000000000000000000000000000000000000
310
00000000000000000000000000000000000000000000000000000000000000000000000000000000000028002800000000000000000000C3000000000000C3000000C3C3C3C300000000000000C3000000000000C300000028ECECECECECEC0000000000000000280028000000000000000000000000000000000000000000
310
00000000000000000000000000000000000000000000000000000000000000000000000000000000000000000000000000000000000000000000000000000000000000000000000000000000000000000000000000000000000000000000000000000000000000000000000000000000000000000000000000000000000000
310
000000000000000000000000000000000000000000000000000000000000000000000000000000000000000028002800000000000000000000C30000000000C3C3C30000C32828C300002800000000C30000000000C3C3C3000028280000000000000000000000000028002800000000000000000000000000000000000000
310
00000000000000000000000000000000000000000000000000000000000000000000000000000000000000000000000000000000000000000000000000000000000000000000000000000000000000000000000000000000000000000000000000000000000000000000000000000000000000000000000000000000000000
310
0000000000000000000000000000000000000000000000000000000000000000000000000000000000000000000028002800000000002800000000C300000000C300C3C300002800002800280028000000C30000000028002800C3002828282828282828282828282828282800280000000000000000000000000000000000
310
00000000000000000000000000000000000000000000000000000000000000000000000000000000000000000000000000000000000000000000000000000000000000000000000000000000000000000000000000000000000000000000000000000000000000000000000000000000000000000000000000000000000000
310
000000000000000000000000000000000000000000000000000000000000000000000000000000000000000000000000280028000000C3282828000000C3000000282828C300000028000028C3280000280000C300000028000028C300002800000000ECECECECEC0000000000280028000000000000000000000000000000
310
00000000000000000000000000000000000000000000000000000000000000000000000000000000000000000000000000000000000000000000000000000000000000000000000000000000000000000000000000000000000000000000000000000000000000000000000000000000000000000000000000000000000000
310
0000000000000000000000000000000000000000000000000000000000000000000000000000000000000000000000000000280028000000C3280028BEBE00C30000BE28002800C30000280000C300280028280000C300002828280028C3C30028280000000000000000000000000028002800000000000000000000000000
310
00000000000000000000000000000000000000000000000000000000000000000000000000000000000000000000000000000000000000000000000000000000000000000000000000000000000000000000000000000000000000000000000000000000000000000000000000000000000000000000000000000000000000
310
000000000000000000000000000000000000000000000000000000000000000000000000000000000000000000000000000000002800280000C30000280028BE00C300BE0028280000C3000028000028C3002800282828C300280028002800C300002828ECECECECECECECECECECEC28282800280000000000000000000000
310
00000000000000000000000000000000000000000000000000000000000000000000000000000000000000000000000000000000000000000000000000000000000000000000000000000000000000000000000000000000000000000000000000000000000000000000000000000000000000000000000000000000000000
310
000000000000000000000000000000000000000000000000000000000000000000000000000000000000000000000000000000000000280028000000C3000028280028C3280028280000C30000002800002800C30028282828C3282828282800C30000002800ECECECECECECECECECECEC0000280028000000000000000000
310
00000000000000000000000000000000000000000000000000000000000000000000000000000000000000000000000000000000000000000000000000000000000000000000000000000000000000000000000000000000000000000000000000000000000000000000000000000000000000000000000000000000000000
310
000000000000000000000000000000000000000000000000000000000000000000000000000000000000000000000000000000000000000028002800000000C30000282828282828280000C300000000280000280000C3002828002800002828C3C30000000028280000000000000000000000000028002800000000000000
310
00000000000000000000000000000000000000000000000000000000000000000000000000000000000000000000000000000000000000000000000000000000000000000000000000000000000000000000000000000000000000000000000000000000000000000000000000000000000000000000000000000000000000
310
000000000000000000000000000000000000000000000000000000000000000000000000000000000000000000000000000000000000000000002800280000000000C3C30028282828F500C3C30000000000280000280000C3C3002828C3002828C3C3C3000000002828282828282828282828282828282800280000000000
310
00000000000000000000000000000000000000000000000000000000000000000000000000000000000000000000000000000000000000000000000000000000000000000000000000000000000000000000000000000000000000000000000000000000000000000000000000000000000000000000000000000000000000
310
0000000000000000000000000000000000000000000000000000000000000000000000000000000000000000000000000000000000000000000000002800280000000000C300C30028282800C300C300000000002828282800000000C30028282828C300C30000000000280028282828282828282828282828280028000000
310
00000000000000000000000000000000000000000000000000000000000000000000000000000000000000000000000000000000000000000000000000000000000000000000000000000000000000000000000000000000000000000000000000000000000000000000000000000000000000000000000000000000000000
310
00000000000000000000000000000000000000000000000000000000000000000000000000000000000000000000000000000000000000000000000000002800280000000000000000C300C300C30000000000000000000000000000000000C300C3C3C3000000000000000028282828282828282828282828282828002800
310
00000000000000000000000000000000000000000000000000000000000000000000000000000000000000000000000000000000000000000000000000000000000000000000000000000000000000000000000000000000000000000000000000000000000000000000000000000000000000000000000000000000000000
310
00000000000000000000000000000000000000000000000000000000000000000000000000000000000000000000000000000000000000000000000000000000280028000000000000000000C3C3C300000000000000000000000000000000000000C3C3C3C300000000000000002800282828282828282828282800002800
310
28000000000000000000000000000000000000000000000000000000000000000000000000000000000000000000000000000000000000000000000000000000000000000000000000000000000000000000000000000000000000000000000000000000000000000000000000000000000000000000000000000000000000
310
000000000000000000000000000000000000000000000000000000000000000000000000000000000000000000000000000000000000000000000000000000000000280028282828282828282828C328C328282828282828282828282828282828282828282828282828282828282828282828282828282828282828282828
310
28002800000000000000000000000000000000000000000000000000000000000000000000000000000000000000000000000000000000000000000000000000000000000000000000000000000000000000000000000000000000000000000000000000000000000000000000000000000000000000000000000000000000
310
00000000000000000000000000000000000000000000000000000000000000000000000000000000000000000000000000000000000000000000000000000000000000002800000000000000000000000000000000000000000000000000000000000000000000000000000000000000000000000000000000000000000000
310
00000000280000000000000000000000000000000000000000000000000000000000000000000000000000000000000000000000000000000000000000000000000000000000000000000000000000000000000000000000000000000000000000000000000000000000000000000000000000000000000000000000000000
310
00000000000000000000000000000000000000000000000000000000000000000000000000000000000000000000000000000000000000000000000000000000000000000000282828282828282828282828282828282828282828282828282828282828282828282828282828282828282828282828282828282828282828
310
28282828282828000000000000000000000000000000000000000000000000000000000000000000000000000000000000000000000000000000000000000000000000000000000000000000000000000000000000000000000000000000000000000000000000000000000000000000000000000000000000000000000000
310
00000000000000000000000000000000000000000000000000000000000000000000000000000000000000000000000000000000000000000000000000000000000000000000000028000000000000000000000000000000000000000000000000000000000000000000000000000000000000000000000000000000000000
310
00000000000000002800000000000000000000000000000000000000000000000000000000000000000000000000000000000000000000000000000000000000000000000000000000000000000000000000000000000000000000000000000000000000000000000000000000000000000000000000000000000000000000
310
00000000000000000000000000000000000000000000000000000000000000000000000000000000000000000000000000000000000000000000000000000000000000000000000000002800282828282828282828282828282828282828282828282828282828282828282828282828282828282828282828282828282828
310
282828F5F5F528282800280000000000000000000000000000000000000000000000000000000000000000000000000000000000000000000000000000000000000000000000000000000000000000000000000000000000000000000000000000000000000000000000000000000000000000000000000000000000000000
310
0000000000000000000000000000000000000000000000000000000000000000000000000000000000000000000000000000000000000000000000000000000000000000000000000000000028002800000000000000000000000000000000000000000000000000000000000000000000000000000000000000280000F5F5
310
0000280000F5F5F50000280028000000000000000000000000000000000000000000000000000000000000000000000000000000000000000000000000000000000000000000000000000000000000000000000000000000000000000000000000000000000000000000000000000000000000000000000000000000000000
310
00000000000000000000000000000000000000000000000000000000000000000000000000000000000000000000000000000000000000000000000000000000000000000000000000000000000028002800000000000000000000000000000000000000000000000000000000000000000000000000000000000000282828
310
00000000282828280000000028002800000000000000000000000000000000000000000000000000000000000000000000000000000000000000000000000000000000000000000000000000000000000000000000000000000000000000000000000000000000000000000000000000000000000000000000000000000000
310
00000000000000000000000000000000000000000000000000000000000000000000000000000000000000000000000000000000000000000000000000000000000000000000000000000000000000002800280000000000000000000000000000000000000000000000000000000000000000000000000000000000000028
310
28F5F5F5F52828282828282828282800280000000000000000000000000000000000000000000000000000000000000000000000000000000000000000000000000000000000000000000000000000000000000000000000000000000000000000000000000000000000000000000000000000000000000000000000000000
310
00000000000000000000000000000000000000000000000000000000000000000000000000000000000000000000000000000000000000000000000000000000000000000000000000000000000000000000280028000000000000000000000000000000ECEC00ECEC000000EC000000000000000000000000000000000000
310
002800F5F5F5F5002828282828282828280028000000000000000000000000000000000000000000000000000000000000000000000000000000000000000000000000000000000000000000000000000000000000000000000000000000000000000000000000000000000000000000000000000000000000000000000000
310
000000000000000000000000000000000000000000000000000000000000000000000000000000000000000000000000000000000000000000000000000000000000000000000000000000000000000000000000280028000000000000000000000000ECECECECECECECECECECECEC00000000000000000000000000000000
310
00000028280000000000282828F5F5F5F5F5F5002800000000000000000000000000000000000000000000000000000000000000000000000000000000000000000000000000000000000000000000000000000000000000000000000000000000000000000000000000000000000000000000000000000000000000000000
310
00000000000000000000000000000000000000000000000000000000000000000000000000000000000000000000000000000000000000000000000000000000000000000000000000000000000000000000000000002800280000000000000000000000000000000000000000000000000000000000000000000000000000
310
0000000000282828282828F5F5F5F528282828282800280000000000000000000000000000000000000000000000000000000000000000000000000000000000000000000000000000000000000000000000000000000000000000000000000000000000000000000000000000000000000000000000000000000000000000
310
000000000000000000000000000000000000000000000000000000000000000000000000000000000000000000000000000000000000000000000000000000000000000000000000000000000000000000000000000000002800280000C3C3C3C3C3C3C3C3C3C3C3C3C3C3C3C3C3C3C3C3C3C3C3C3C3C3C3C3C3C3C3000000
310
00000000000000280000000000F5F5F5F50000000000280028000000000000000000000000000000000000000000000000000000000000000000000000000000000000000000000000000000000000000000000000000000000000000000000000000000000000000000000000000000000000000000000000000000000000
310
000000000000000000000000000000000000000000000000000000000000000000000000000000000000000000000000000000000000000000000000000000000000000000000000000000000000000000000000000000000000280028DC00C3C3DCDCDCDCDCC3DCDCDCDCDCDCC3DCDCDCDCDCDCC3DCDCDCDCDCDCC3DCC300
310
00000000000000000028282800000000000000000000000028002800000000000000000000000000000000000000000000000000000000000000000000000000000000000000000000000000000000000000000000000000000000000000000000000000000000000000000000000000000000000000000000000000000000
310
0000000000000000000000000000000000000000000000000000000000000000000000000000000000000000000000000000000000000000000000000000000000000000000000000000000000000000000000000000000000000000280028DCDCDCDCDCDCDCDCDCDCDCDCDCDCDCDCDCDCDCDCDCDCDCDCDCDCDCDCDCDCDCDC
310
DC0000000000000000000028ECECECECECECECECECECECEC28282800280000000000000000000000000000000000000000000000000000000000000000000000000000000000000000000000000000000000000000000000000000000000000000000000000000000000000000000000000000000000000000000000000000
310
00000000000000000000000000000000000000000000000000000000000000000000000000000000000000000000000000000000000000000000000000000000000000000000000000000000000000000000000000000000000000000000280028DC00C3DCC3DCDCDCDCDCDCC3DCDCDCDCDCDCC3DCDCDCDCDCC3DCDCDCDCDC
310
DCC3C300000000000000000000280000000000000000000000000000280028000000000000000000000000000000000000000000000000000000000000000000000000000000000000000000000000000000000000000000000000000000000000000000000000000000000000000000000000000000000000000000000000
310
0000000000000000000000000000000000000000000000000000000000000000000000000000000000000000000000000000000000000000000000000000000000000000000000000000000000000000000000000000000000000000000000002800280000C3C3C3C3C3C3C3C3C3C3C3C3C3C3C3C3C3C3C3C3C3C3C3C3C3C3
310
C3C3C3C3C30000000000000000000028000000000000000000000000000028002800000000000000000000000000000000000000000000000000000000000000000000000000000000000000000000000000000000000000000000000000000000000000000000000000000000000000000000000000000000000000000000
310
00000000000000000000000000000000000000000000000000000000000000000000000000000000000000000000000000000000000000000000000000000000000000000000000000000000000000000000000000000000000000000000000000002800280000C3C3C3C3C3C3C3C3C3C3C3C3C3C3C3C3C3C3C3C3C3C3C3C3
310
C3C3C3C3C3C3C3000000000000000000002800000000000000000000000000002800280000000000000000000000000000000000000000000000000000000000000000000000000000000000000000000000000000000000000000000000000000000000000000000000000000000000000000000000000000000000000000
310
00000000000000000000000000000000000000000000000000000000000000000000000000000000000000000000000000000000000000000000000000000000000000000000000000000000000000000000000000000000000000000000000000000000280028ECECECECECEC00000000000000000000C3C3C30000000000
310
00000000000000000000000000000000000000280000000000000000000000000000280028000000000000000000000000000000000000000000000000000000000000000000000000000000000000000000000000000000000000000000000000000000000000000000000000000000000000000000000000000000000000
310
00000000000000000000000000000000000000000000000000000000000000000000000000000000000000000000000000000000000000000000000000000000000000000000000000000000000000000000000000000000000000000000000000000000000028002800000000000000000000000000000000000000000000
310
00000000000000000000000000000000000000000028000000000000000000000000000028002800000000000000000000000000000000000000000000000000000000000000000000000000000000000000000000000000000000000000000000000000000000000000000000000000000000000000000000000000000000
310
00000000000000000000000000000000000000000000000000000000000000000000000000000000000000000000000000000000000000000000000000000000000000000000000000000000000000000000000000000000000000000000000000000000000000002800280000000000000000000000000000000000000000
310
00000000000000000000000000000000000000000000002800000000000000000000000000002800280000000000000000000000000000000000000000000000000000000000000000000000000000000000000000000000000000000000000000000000000000000000000000000000000000000000000000000000000000
310
000000000000000000000000000000000000000000000000000000000000000000000000000000000000000000000000000000000000000000000000000000000000000000000000000000000000000000000000000000000000000000000000000000000000000000002800280000C3C3C3C3C3C3C3C3C3C3C3C3C3C3C3C3
310
00000000000000000000000000000000000000000000000000280000000000000000000000000000280028000000000000000000000000000000000000000000000000000000000000000000000000000000000000000000000000000000000000000000000000000000000000000000000000000000000000000000000000
310
0000000000000000000000000000000000000000000000000000000000000000000000000000000000000000000000000000000000000000000000000000000000000000000000000000000000000000000000000000000000000000000000000000000000000000000000002800280000C3C300C3C30000C30000C3C30000
310
C3C30000000000000000000000000000000000000000000000000028000000000000000000000000000028002800000000000000000000000000000000000000000000000000000000000000000000000000000000000000000000000000000000000000000000000000000000000000000000000000000000000000000000
310
0000000000000000000000000000000000000000000000000000000000000000000000000000000000000000000000000000000000000000000000000000000000000000000000000000000000000000000000000000000000000000000000000000000000000000000000000000280028DCDCDCDCDCDCDCDCDCDCDCDCDCDC
310
DCDCDCDC000000000000000000000000000000000000000000000000002800000000000000000000000000002800280000000000000000000000000000000000000000000000000000000000000000000000000000000000000000000000000000000000000000000000000000000000000000000000000000000000000000
310
00000000000000000000000000000000000000000000000000000000000000000000000000000000000000000000000000000000000000000000000000000000000000000000000000000000000000000000000000000000000000000000000000000000000000000000000000000000280028DC00C3DCC3DCDCDCDCDCDCC3
310
DCDCDCDCDCC300000000000000000000000000000000000000000000000000280000000000000000000000000000280028000000000000000000000000000000000000000000000000000000000000000000000000000000000000000000000000000000000000000000000000000000000000000000000000000000000000
310
0000000000000000000000000000000000000000000000000000000000000000000000000000000000000000000000000000000000000000000000000000000000000000000000000000000000000000000000000000000000000000000000000000000000000000000000000000000000002800280000C300C30000000000
310
00C30000000000C30000000000000000000000000000000000000000000000000028000000000000000000000000000028002800000000000000000000000000000000000000000000000000000000000000000000000000000000000000000000000000000000000000000000000000000000000000000000000000000000
310
00000000000000000000000000000000000000000000000000000000000000000000000000000000000000000000000000000000000000000000000000000000000000000000000000000000000000000000000000000000000000000000000000000000000000000000000000000000000000002800280000C3C3C3C3C3C3
310
C3C3C3C3C3C3C3C3C3C3000000000000000000000000000000000000000000000000002800ECECECEC0000000000000000002800280000000000000000000000000000000000000000000000000000000000000000000000000000000000000000000000000000000000000000000000000000000000000000000000000000
310
000000000000000000000000000000000000000000000000000000000000000000000000000000000000000000000000000000000000000000000000000000000000000000000000000000000000000000000000000000000000000000000000000000000000000000000000000000000000000000002800280000ECC3C3C3
310
C3C3C3C3C3C3C3C3C3C3C3C30000000000000000000000000000000000000000000000000028ECECECECECEC0000000000000000280028000000000000000000000000000000000000000000000000000000000000000000000000000000000000000000000000000000000000000000000000000000000000000000000000
310
000000000000000000000000000000000000000000000000000000000000000000000000000000000000000000000000000000000000000000000000000000000000000000000000000000000000000000000000000000000000000000000000000000000000000000000000000000000000000000000000280028ECECECEC
310
ECEC000000C3C30000000000000000000000000000000000000000000000000000000000000000280000ECECECEC0000ECECECEC000028002800000000000000000000000000000000000000000000000000000000000000000000000000000000000000000000000000000000000000000000000000000000000000000000
310
00000000000000000000000000000000000000000000000000000000000000000000000000000000000000000000000000000000000000000000000000000000000000000000000000000000000000000000000000000000000000000000000000000000000000000000000000000000000000000000000000002800280000
310
0000000000000000000000000000000000000000000000000000000000000000000000000000000000280000ECECECECECECECECECEC00002800280000000000000000000000000000000000000000000000000000000000000000000000000000000000000000000000000000000000000000000000000000000000000000
310
00000000000000000000000000000000000000000000000000000000000000000000000000000000000000000000000000000000000000000000000000000000000000000000000000000000000000000000000000000000000000000000000000000000000000000000000000000000000000000000000000000000280028
310
000000000000000000000000000000000000000000000000000000000000000000000000000000000000002800ECECECECECECECECECECEC0000280028000000000000000000000000000000000000000000000000000000000000000000000000000000000000000000000000000000000000000000000000000000000000
310
00000000000000000000000000000000000000000000000000000000000000000000000000000000000000000000000000000000000000000000000000000000000000000000000000000000000000000000000000000000000000000000000000000000000000000000000000000000000000000000000000000000000028
310
0028000000000000000000ECECECECEC000000000000000000000000ECECECECEC0000000000000000000000002800ECECECECECECECEC000000000028002800000000000000000000000000000000000000000000000000000000000000000000000000000000000000000000000000000000000000000000000000000000
310
00000000000000000000000000000000000000000000000000000000000000000000000000000000000000000000000000000000000000000000000000000000000000000000000000000000000000000000000000000000000000000000000000000000000000000000000000000000000000000000000000000000000000
310
002800280000000000000000ECECECECECEC000000000000000000000000ECECECECEC0000000000000000000000002800ECECECECECECEC0000000000002800280000000000000000000000000000000000000000000000000000000000000000000000000000000000000000000000000000000000000000000000000000
310
00000000000000000000000000000000000000000000000000000000000000000000000000000000000000000000000000000000000000000000000000000000000000000000000000000000000000000000000000000000000000000000000000000000000000000000000000000000000000000000000000000000000000
310
00000028002800000000000000000000000000000000000000000000000000000000000000C300C30000000000000000002800ECECECECEC0000000000000000280028000000000000000000000000000000000000000000000000000000000000000000000000000000000000000000000000000000000000000000000000
310
00000000000000000000000000000000000000000000000000000000000000000000000000000000000000000000000000000000000000000000000000000000000000000000000000000000000000000000000000000000000000000000000000000000000000000000000000000000000000000000000000000000000000
310
000000000028002800000000000000000000000000000000C30000000000000000000000000000C3C3C300000000000000000028ECECECEC0000000000000000000028002800000000000000000000000000000000000000000000000000000000000000000000000000000000000000000000000000000000000000000000
310
00000000000000000000000000000000000000000000000000000000000000000000000000000000000000000000000000000000000000000000000000000000000000000000000000000000000000000000000000000000000000000000000000000000000000000000000000000000000000000000000000000000000000
310
000000000000002800280000000000000000000000C300000000C3C30000000028282800C300000000C328C3C300000000000000002828282828282828282828282828282800280000000000000000000000000000000000000000000000000000000000000000000000000000000000000000000000000000000000000000
310
00000000000000000000000000000000000000000000000000000000000000000000000000000000000000000000000000000000000000000000000000000000000000000000000000000000000000000000000000000000000000000000000000000000000000000000000000000000000000000000000000000000000000
310
0000000000000000002800280000000000002828280000C3000028C3C3000000000028282800C3C3000000282828C300000000000000002800000000ECECECECEC0000000000280028000000000000000000000000000000000000000000000000000000000000000000000000000000000000000000000000000000000000
310
00000000000000000000000000000000000000000000000000000000000000000000000000000000000000000000000000000000000000000000000000000000000000000000000000000000000000000000000000000000000000000000000000000000000000000000000000000000000000000000000000000000000000
310
00000000000000000000002800280000000000C3C328BEBE00C300BE2828C3C3000000002828280000C3C30000282828C300000000000000002800000000ECECECECEC000000000028002800000000000000000000000000000000000000000000000000000000000000000000000000000000000000000000000000000000
310
00000000000000000000000000000000000000000000000000000000000000000000000000000000000000000000000000000000000000000000000000000000000000000000000000000000000000000000000000000000000000000000000000000000000000000000000000000000000000000000000000000000000000
310
000000000000000000000000002800280000000000C3C32828BEBEC3BE2828C300C300000000282828000000C3C3002828C3C300000000000000002828282828282828282828282828282800280000000000000000000000000000000000000000000000000000000000000000000000000000000000000000000000000000
310
00000000000000000000000000000000000000000000000000000000000000000000000000000000000000000000000000000000000000000000000000000000000000000000000000000000000000000000000000000000000000000000000000000000000000000000000000000000000000000000000000000000000000
310
00000000000000000000000000000028002800000000000000C3282828282828C30000000000000028282800000000C3C32828C3C300000000000000002800ECECECECECECECECECECEC0000280028000000000000000000000000000000000000000000000000000000000000000000000000000000000000000000000000
310
00000000000000000000000000000000000000000000000000000000000000000000000000000000000000000000000000000000000000000000000000000000000000000000000000000000000000000000000000000000000000000000000000000000000000000000000000000000000000000000000000000000000000
310
000000000000000000000000000000000028002800000000000000C3C32828282800C3C30000000000002828280000000000C3282828C3000000000000000028000000ECEC000000ECECECEC000028002800000000000000000000000000000000000000000000000000000000000000000000000000000000000000000000
310
00000000000000000000000000000000000000000000000000000000000000000000000000000000000000000000000000000000000000000000000000000000000000000000000000000000000000000000000000000000000000000000000000000000000000000000000000000000000000000000000000000000000000
310
00000000000000000000000000000000000000280028000000000000000000C328C300C30000000000000000282828282828282828282828C300000000000000002828282828282828282828282828282800280000000000000000000000000000000000000000000000000000000000000000000000000000000000000000
310
00000000000000000000000000000000000000000000000000000000000000000000000000000000000000000000000000000000000000000000000000000000000000000000000000000000000000000000000000000000000000000000000000000000000000000000000000000000000000000000000000000000000000
310
00000000000000000000000000000000000000000028002800000000000000000000C3C3C3000000000000000000282828C328282828282828C3C30000000000000000280028282828282828282828282828280028000000000000000000000000000000000000000000000000000000000000000000000000000000000000
310
00000000000000000000000000000000000000000000000000000000000000000000000000000000000000000000000000000000000000000000000000000000000000000000000000000000000000000000000000000000000000000000000000000000000000000000000000000000000000000000000000000000000000
310
000000000000000000000000000000000000000000000028002800000000000000000000000000000000000000000000000000C3C3C3C3C3C3C3C3C3C3000000000000000028282828282828282828282828282828002800000000000000000000000000000000000000000000000000000000000000000000000000000000
310
00000000000000000000000000000000000000000000000000000000000000000000000000000000000000000000000000000000000000000000000000000000000000000000000000000000000000000000000000000000000000000000000000000000000000000000000000000000000000000000000000000000000000
310
000000000000000000000000000000000000000000000000002800280000000000000000000000000000000000000000000000000000000000C3000000000000000000000000002800282828282828282828282828282800280000000000000000000000000000000000000000000000000000000000000000000000000000
310
00000000000000000000000000000000000000000000000000000000000000000000000000000000000000000000000000000000000000000000000000000000000000000000000000000000000000000000000000000000000000000000000000000000000000000000000000000000000000000000000000000000000000
310
00000000000000000000000000000000000000000000000000000028002800000000000000000000000000000000000000000000000000000000000000000000000000000000000000280028282800000000000000000000280028000000000000000000000000000000000000000000000000000000000000000000000000
310
00000000000000000000000000000000000000000000000000000000000000000000000000000000000000000000000000000000000000000000000000000000000000000000000000000000000000000000000000000000000000000000000000000000000000000000000000000000000000000000000000000000000000
310
00000000000000000000000000000000000000000000000000000000002800282828282828282828282828282828282828282828282828282828282828282828282828282828282828282828282828282828282828282828282828002800000000000000000000000000000000000000000000000000000000000000000000
310
00000000000000000000000000000000000000000000000000000000000000000000000000000000000000000000000000000000000000000000000000000000000000000000000000000000000000000000000000000000000000000000000000000000000000000000000000000000000000000000000000000000000000
310
00000000000000000000000000000000000000000000000000000000000000282828282828282828282828282828282828282828282828282828282828282828282828282828282828282828282828282828282828282828282828282828280000000000000000000000000000000000000000000000000000000000000000
310
00000000000000000000000000000000000000000000000000000000000000000000000000000000000000000000000000000000000000000000000000000000000000000000000000000000000000000000000000000000000000000000000000000000000000000000000000000000000000000000000000000000000000
310
00000000000000000000000000000000000000000000000000000000000000000000000000000000000000000000000000000000000000000000000000000000000000000000000000000000000000000000000000000000000000000000000000000000000000000000000000000000000000000000000000000000000000
310
000000000000000000000000000000000000000000000000000000000000000000000000000000000000000000000000000000000000000000000000000000000000
  0
XRECORD
  5
AAF
102
{ACAD_REACTORS
330
AAE
102
}
330
AAE
100
AcDbXrecord
280
     1
102
SHADEPLOT
 70
     0
102
SHADEPLOTRESLEVEL
 70
     2
102
SHADEPLOTCUSTOMDPI
 70
   300
  0
XRECORD
  5
AB1
102
{ACAD_REACTORS
330
941
102
}
330
941
100
AcDbXrecord
280
     1
102
MATERIAL
148
0.0
149
0.0
149
0.0
 93
        0
 94
      127
282
     0
 72
     0
 77
     0
171
     0
175
     0
179
     0
273
     0
  0
XRECORD
  5
943
102
{ACAD_REACTORS
330
941
102
}
330
941
100
AcDbXrecord
280
     1
270
     1
271
     1
  0
XRECORD
  5
942
102
{ACAD_REACTORS
330
941
102
}
330
941
100
AcDbXrecord
280
     1
270
     1
271
     1
  0
XRECORD
  5
946
102
{ACAD_REACTORS
330
941
102
}
330
941
100
AcDbXrecord
280
     1
270
     1
271
     1
  0
XRECORD
  5
945
102
{ACAD_REACTORS
330
941
102
}
330
941
100
AcDbXrecord
280
     1
270
     1
271
     1
  0
XRECORD
  5
947
102
{ACAD_REACTORS
330
941
102
}
330
941
100
AcDbXrecord
280
     1
270
     1
271
     1
  0
XRECORD
  5
944
102
{ACAD_REACTORS
330
941
102
}
330
941
100
AcDbXrecord
280
     1
270
     1
271
     1
  0
XRECORD
  5
AB0
102
{ACAD_REACTORS
330
939
102
}
330
939
100
AcDbXrecord
280
     1
102
MATERIAL
148
0.0
149
0.0
149
0.0
 93
        0
 94
      127
282
     0
 72
     0
 77
     0
171
     0
175
     0
179
     0
273
     0
  0
XRECORD
  5
93B
102
{ACAD_REACTORS
330
939
102
}
330
939
100
AcDbXrecord
280
     1
270
     1
271
     1
  0
XRECORD
  5
93A
102
{ACAD_REACTORS
330
939
102
}
330
939
100
AcDbXrecord
280
     1
270
     1
271
     1
  0
XRECORD
  5
93E
102
{ACAD_REACTORS
330
939
102
}
330
939
100
AcDbXrecord
280
     1
270
     1
271
     1
  0
XRECORD
  5
93D
102
{ACAD_REACTORS
330
939
102
}
330
939
100
AcDbXrecord
280
     1
270
     1
271
     1
  0
XRECORD
  5
93F
102
{ACAD_REACTORS
330
939
102
}
330
939
100
AcDbXrecord
280
     1
270
     1
271
     1
  0
XRECORD
  5
93C
102
{ACAD_REACTORS
330
939
102
}
330
939
100
AcDbXrecord
280
     1
270
     1
271
     1
  0
XRECORD
  5
AB2
102
{ACAD_REACTORS
330
949
102
}
330
949
100
AcDbXrecord
280
     1
102
MATERIAL
148
0.0
149
0.0
149
0.0
 93
        0
 94
      127
282
     0
 72
     0
 77
     0
171
     0
175
     0
179
     0
273
     0
  0
XRECORD
  5
94B
102
{ACAD_REACTORS
330
949
102
}
330
949
100
AcDbXrecord
280
     1
270
     1
271
     1
  0
XRECORD
  5
94A
102
{ACAD_REACTORS
330
949
102
}
330
949
100
AcDbXrecord
280
     1
270
     1
271
     1
  0
XRECORD
  5
94E
102
{ACAD_REACTORS
330
949
102
}
330
949
100
AcDbXrecord
280
     1
270
     1
271
     1
  0
XRECORD
  5
94D
102
{ACAD_REACTORS
330
949
102
}
330
949
100
AcDbXrecord
280
     1
270
     1
271
     1
  0
XRECORD
  5
94F
102
{ACAD_REACTORS
330
949
102
}
330
949
100
AcDbXrecord
280
     1
270
     1
271
     1
  0
XRECORD
  5
94C
102
{ACAD_REACTORS
330
949
102
}
330
949
100
AcDbXrecord
280
     1
270
     1
271
     1
  0
XRECORD
  5
AA9
102
{ACAD_REACTORS
330
AA8
102
}
330
AA8
100
AcDbXrecord
280
     1
102
ACAD_ROUNDTRIP_2012_MLEADER_STYLE
298
     1
  0
CELLSTYLEMAP
  5
AA7
102
{ACAD_REACTORS
330
AA6
102
}
330
AA6
100
AcDbCellStyleMap
 90
        3
300
CELLSTYLE
  1
TABLEFORMAT_BEGIN
 90
        5
170
     1
 91
        0
 92
    32768
 62
   257
 93
        1
300
CONTENTFORMAT
  1
CONTENTFORMAT_BEGIN
 90
        0
 91
        0
 92
        4
 93
        0
300

 40
0.0
140
1.0
 94
        5
 62
     0
340
7
144
0.25
309
CONTENTFORMAT_END
171
     0
 94
        6
 95
        1
302
GRIDFORMAT
  1
GRIDFORMAT_BEGIN
 90
        0
 91
        1
 62
     0
 92
       -2
340
0
 93
        0
 40
0.045
309
GRIDFORMAT_END
 95
        2
302
GRIDFORMAT
  1
GRIDFORMAT_BEGIN
 90
        0
 91
        1
 62
     0
 92
       -2
340
0
 93
        0
 40
0.045
309
GRIDFORMAT_END
 95
        4
302
GRIDFORMAT
  1
GRIDFORMAT_BEGIN
 90
        0
 91
        1
 62
     0
 92
       -2
340
0
 93
        0
 40
0.045
309
GRIDFORMAT_END
 95
        8
302
GRIDFORMAT
  1
GRIDFORMAT_BEGIN
 90
        0
 91
        1
 62
     0
 92
       -2
340
0
 93
        0
 40
0.045
309
GRIDFORMAT_END
 95
       16
302
GRIDFORMAT
  1
GRIDFORMAT_BEGIN
 90
        0
 91
        1
 62
     0
 92
       -2
340
0
 93
        0
 40
0.045
309
GRIDFORMAT_END
 95
       32
302
GRIDFORMAT
  1
GRIDFORMAT_BEGIN
 90
        0
 91
        1
 62
     0
 92
       -2
340
0
 93
        0
 40
0.045
309
GRIDFORMAT_END
309
TABLEFORMAT_END
  1
CELLSTYLE_BEGIN
 90
        1
 91
        1
300
_TITLE
309
CELLSTYLE_END
300
CELLSTYLE
  1
TABLEFORMAT_BEGIN
 90
        5
170
     1
 91
        0
 92
        0
 62
   257
 93
        1
300
CONTENTFORMAT
  1
CONTENTFORMAT_BEGIN
 90
        0
 91
        0
 92
        4
 93
        0
300

 40
0.0
140
1.0
 94
        5
 62
     0
340
7
144
0.18
309
CONTENTFORMAT_END
171
     0
 94
        6
 95
        1
302
GRIDFORMAT
  1
GRIDFORMAT_BEGIN
 90
        0
 91
        1
 62
     0
 92
       -2
340
0
 93
        0
 40
0.045
309
GRIDFORMAT_END
 95
        2
302
GRIDFORMAT
  1
GRIDFORMAT_BEGIN
 90
        0
 91
        1
 62
     0
 92
       -2
340
0
 93
        0
 40
0.045
309
GRIDFORMAT_END
 95
        4
302
GRIDFORMAT
  1
GRIDFORMAT_BEGIN
 90
        0
 91
        1
 62
     0
 92
       -2
340
0
 93
        0
 40
0.045
309
GRIDFORMAT_END
 95
        8
302
GRIDFORMAT
  1
GRIDFORMAT_BEGIN
 90
        0
 91
        1
 62
     0
 92
       -2
340
0
 93
        0
 40
0.045
309
GRIDFORMAT_END
 95
       16
302
GRIDFORMAT
  1
GRIDFORMAT_BEGIN
 90
        0
 91
        1
 62
     0
 92
       -2
340
0
 93
        0
 40
0.045
309
GRIDFORMAT_END
 95
       32
302
GRIDFORMAT
  1
GRIDFORMAT_BEGIN
 90
        0
 91
        1
 62
     0
 92
       -2
340
0
 93
        0
 40
0.045
309
GRIDFORMAT_END
309
TABLEFORMAT_END
  1
CELLSTYLE_BEGIN
 90
        2
 91
        1
300
_HEADER
309
CELLSTYLE_END
300
CELLSTYLE
  1
TABLEFORMAT_BEGIN
 90
        5
170
     1
 91
        0
 92
        0
 62
   257
 93
        1
300
CONTENTFORMAT
  1
CONTENTFORMAT_BEGIN
 90
        0
 91
        0
 92
        4
 93
        0
300

 40
0.0
140
1.0
 94
        2
 62
     0
340
7
144
0.18
309
CONTENTFORMAT_END
171
     0
 94
        6
 95
        1
302
GRIDFORMAT
  1
GRIDFORMAT_BEGIN
 90
        0
 91
        1
 62
     0
 92
       -2
340
0
 93
        0
 40
0.045
309
GRIDFORMAT_END
 95
        2
302
GRIDFORMAT
  1
GRIDFORMAT_BEGIN
 90
        0
 91
        1
 62
     0
 92
       -2
340
0
 93
        0
 40
0.045
309
GRIDFORMAT_END
 95
        4
302
GRIDFORMAT
  1
GRIDFORMAT_BEGIN
 90
        0
 91
        1
 62
     0
 92
       -2
340
0
 93
        0
 40
0.045
309
GRIDFORMAT_END
 95
        8
302
GRIDFORMAT
  1
GRIDFORMAT_BEGIN
 90
        0
 91
        1
 62
     0
 92
       -2
340
0
 93
        0
 40
0.045
309
GRIDFORMAT_END
 95
       16
302
GRIDFORMAT
  1
GRIDFORMAT_BEGIN
 90
        0
 91
        1
 62
     0
 92
       -2
340
0
 93
        0
 40
0.045
309
GRIDFORMAT_END
 95
       32
302
GRIDFORMAT
  1
GRIDFORMAT_BEGIN
 90
        0
 91
        1
 62
     0
 92
       -2
340
0
 93
        0
 40
0.045
309
GRIDFORMAT_END
309
TABLEFORMAT_END
  1
CELLSTYLE_BEGIN
 90
        3
 91
        2
300
_DATA
309
CELLSTYLE_END
  0
XRECORD
  5
AAC
102
{ACAD_REACTORS
330
AA6
102
}
330
AA6
100
AcDbXrecord
280
     1
102
ACAD_ROUNDTRIP_PRE2007_TABLESTYLE
 90
        4
 91
        0
  1

 92
        4
 93
        0
  2

 94
        4
 95
        0
  3

  0
XRECORD
  5
ABE
102
{ACAD_REACTORS
330
ABD
102
}
330
ABD
100
AcDbXrecord
280
     1
102
RTVSPropertyOp0
 70
     1
102
RTVSPropertyOp1
 70
     1
102
RTVSPropertyOp2
 70
     1
102
RTVSPropertyOp3
 70
     1
102
RTVSPropertyOp4
 70
     1
102
RTVSPropertyOp5
 70
     1
102
RTVSPropertyOp6
 70
     1
102
RTVSPropertyOp7
 70
     1
102
RTVSPropertyOp8
 70
     1
102
RTVSPropertyOp9
 70
     1
102
RTVSPropertyOp10
 70
     1
102
RTVSPropertyOp11
 70
     1
102
RTVSPropertyOp12
 70
     1
102
RTVSPropertyOp13
 70
     1
102
RTVSPropertyOp14
 70
     1
102
RTVSPropertyOp15
 70
     1
102
RTVSPropertyOp16
 70
     1
102
RTVSPropertyOp17
 70
     1
102
RTVSPropertyOp18
 70
     1
102
RTVSPropertyOp19
 70
     1
102
RTVSPropertyOp20
 70
     1
102
RTVSPropertyOp21
 70
     1
102
RTVSPropertyOp22
 70
     1
102
RTVSPropertyOp23
 70
     1
102
RTVSPropertyOp24
 70
     1
102
RTVSPropertyOp25
 70
     1
102
RTVSPropertyOp26
 70
     1
102
RTVSPropertyOp27
 70
     1
102
RTVSPropertyOp28
 70
     1
102
RTVSPropertyOp29
 70
     1
102
RTVSPropertyOp30
 70
     1
102
RTVSPropertyOp31
 70
     1
102
RTVSPropertyOp32
 70
     1
  0
XRECORD
  5
ABC
102
{ACAD_REACTORS
330
ABB
102
}
330
ABB
100
AcDbXrecord
280
     1
102
RTVSPropertyOp0
 70
     1
102
RTVSPropertyOp1
 70
     1
102
RTVSPropertyOp2
 70
     1
102
RTVSPropertyOp3
 70
     1
102
RTVSPropertyOp4
 70
     1
102
RTVSPropertyOp5
 70
     1
102
RTVSPropertyOp6
 70
     1
102
RTVSPropertyOp7
 70
     1
102
RTVSPropertyOp8
 70
     1
102
RTVSPropertyOp9
 70
     1
102
RTVSPropertyOp10
 70
     1
102
RTVSPropertyOp11
 70
     1
102
RTVSPropertyOp12
 70
     1
102
RTVSPropertyOp13
 70
     1
102
RTVSPropertyOp14
 70
     1
102
RTVSPropertyOp15
 70
     1
102
RTVSPropertyOp16
 70
     1
102
RTVSPropertyOp17
 70
     1
102
RTVSPropertyOp18
 70
     1
102
RTVSPropertyOp19
 70
     1
102
RTVSPropertyOp20
 70
     1
102
RTVSPropertyOp21
 70
     1
102
RTVSPropertyOp22
 70
     1
102
RTVSPropertyOp23
 70
     1
102
RTVSPropertyOp24
 70
     1
102
RTVSPropertyOp25
 70
     1
102
RTVSPropertyOp26
 70
     1
102
RTVSPropertyOp27
 70
     1
102
RTVSPropertyOp28
 70
     1
102
RTVSPropertyOp29
 70
     1
102
RTVSPropertyOp30
 70
     1
102
RTVSPropertyOp31
 70
     1
102
RTVSPropertyOp32
 70
     1
  0
XRECORD
  5
ACA
102
{ACAD_REACTORS
330
AC9
102
}
330
AC9
100
AcDbXrecord
280
     1
102
RTVSPropertyOp0
 70
     1
102
RTVSPropertyOp1
 70
     1
102
RTVSPropertyOp2
 70
     1
102
RTVSPropertyOp3
 70
     1
102
RTVSPropertyOp4
 70
     1
102
RTVSPropertyOp5
 70
     1
102
RTVSPropertyOp6
 70
     1
102
RTVSPropertyOp7
 70
     1
102
RTVSPropertyOp8
 70
     1
102
RTVSPropertyOp9
 70
     1
102
RTVSPropertyOp10
 70
     1
102
RTVSPropertyOp11
 70
     1
102
RTVSPropertyOp12
 70
     1
102
RTVSPropertyOp13
 70
     1
102
RTVSPropertyOp14
 70
     1
102
RTVSPropertyOp15
 70
     1
102
RTVSPropertyOp16
 70
     1
102
RTVSPropertyOp17
 70
     1
102
RTVSPropertyOp18
 70
     1
102
RTVSPropertyOp19
 70
     1
102
RTVSPropertyOp20
 70
     1
102
RTVSPropertyOp21
 70
     1
102
RTVSPropertyOp22
 70
     1
102
RTVSPropertyOp23
 70
     1
102
RTVSPropertyOp24
 70
     1
102
RTVSPropertyOp25
 70
     1
102
RTVSPropertyOp26
 70
     1
102
RTVSPropertyOp27
 70
     1
102
RTVSPropertyOp28
 70
     1
102
RTVSPropertyOp29
 70
     1
102
RTVSPropertyOp30
 70
     1
102
RTVSPropertyOp31
 70
     1
102
RTVSPropertyOp32
 70
     1
  0
XRECORD
  5
AD2
102
{ACAD_REACTORS
330
AD1
102
}
330
AD1
100
AcDbXrecord
280
     1
102
RTVSPropertyOp0
 70
     1
102
RTVSPropertyOp1
 70
     1
102
RTVSPropertyOp2
 70
     1
102
RTVSPropertyOp3
 70
     1
102
RTVSPropertyOp4
 70
     1
102
RTVSPropertyOp5
 70
     1
102
RTVSPropertyOp6
 70
     1
102
RTVSPropertyOp7
 70
     1
102
RTVSPropertyOp8
 70
     1
102
RTVSPropertyOp9
 70
     1
102
RTVSPropertyOp10
 70
     1
102
RTVSPropertyOp11
 70
     1
102
RTVSPropertyOp12
 70
     1
102
RTVSPropertyOp13
 70
     1
102
RTVSPropertyOp14
 70
     1
102
RTVSPropertyOp15
 70
     1
102
RTVSPropertyOp16
 70
     1
102
RTVSPropertyOp17
 70
     1
102
RTVSPropertyOp18
 70
     1
102
RTVSPropertyOp19
 70
     1
102
RTVSPropertyOp20
 70
     1
102
RTVSPropertyOp21
 70
     1
102
RTVSPropertyOp22
 70
     1
102
RTVSPropertyOp23
 70
     1
102
RTVSPropertyOp24
 70
     1
102
RTVSPropertyOp25
 70
     1
102
RTVSPropertyOp26
 70
     1
102
RTVSPropertyOp27
 70
     1
102
RTVSPropertyOp28
 70
     1
102
RTVSPropertyOp29
 70
     1
102
RTVSPropertyOp30
 70
     1
102
RTVSPropertyOp31
 70
     1
102
RTVSPropertyOp32
 70
     1
  0
XRECORD
  5
AC4
102
{ACAD_REACTORS
330
AC3
102
}
330
AC3
100
AcDbXrecord
280
     1
102
RTVSPropertyOp0
 70
     1
102
RTVSPropertyOp1
 70
     1
102
RTVSPropertyOp2
 70
     1
102
RTVSPropertyOp3
 70
     1
102
RTVSPropertyOp4
 70
     1
102
RTVSPropertyOp5
 70
     1
102
RTVSPropertyOp6
 70
     1
102
RTVSPropertyOp7
 70
     1
102
RTVSPropertyOp8
 70
     1
102
RTVSPropertyOp9
 70
     1
102
RTVSPropertyOp10
 70
     1
102
RTVSPropertyOp11
 70
     1
102
RTVSPropertyOp12
 70
     1
102
RTVSPropertyOp13
 70
     1
102
RTVSPropertyOp14
 70
     1
102
RTVSPropertyOp15
 70
     1
102
RTVSPropertyOp16
 70
     1
102
RTVSPropertyOp17
 70
     1
102
RTVSPropertyOp18
 70
     1
102
RTVSPropertyOp19
 70
     1
102
RTVSPropertyOp20
 70
     1
102
RTVSPropertyOp21
 70
     1
102
RTVSPropertyOp22
 70
     1
102
RTVSPropertyOp23
 70
     1
102
RTVSPropertyOp24
 70
     1
102
RTVSPropertyOp25
 70
     1
102
RTVSPropertyOp26
 70
     1
102
RTVSPropertyOp27
 70
     1
102
RTVSPropertyOp28
 70
     1
102
RTVSPropertyOp29
 70
     1
102
RTVSPropertyOp30
 70
     1
102
RTVSPropertyOp31
 70
     1
102
RTVSPropertyOp32
 70
     1
  0
XRECORD
  5
AC8
102
{ACAD_REACTORS
330
AC7
102
}
330
AC7
100
AcDbXrecord
280
     1
102
RTVSPropertyOp0
 70
     1
102
RTVSPropertyOp1
 70
     1
102
RTVSPropertyOp2
 70
     1
102
RTVSPropertyOp3
 70
     1
102
RTVSPropertyOp4
 70
     1
102
RTVSPropertyOp5
 70
     1
102
RTVSPropertyOp6
 70
     1
102
RTVSPropertyOp7
 70
     1
102
RTVSPropertyOp8
 70
     1
102
RTVSPropertyOp9
 70
     1
102
RTVSPropertyOp10
 70
     1
102
RTVSPropertyOp11
 70
     1
102
RTVSPropertyOp12
 70
     1
102
RTVSPropertyOp13
 70
     1
102
RTVSPropertyOp14
 70
     1
102
RTVSPropertyOp15
 70
     1
102
RTVSPropertyOp16
 70
     1
102
RTVSPropertyOp17
 70
     1
102
RTVSPropertyOp18
 70
     1
102
RTVSPropertyOp19
 70
     1
102
RTVSPropertyOp20
 70
     1
102
RTVSPropertyOp21
 70
     1
102
RTVSPropertyOp22
 70
     1
102
RTVSPropertyOp23
 70
     1
102
RTVSPropertyOp24
 70
     1
102
RTVSPropertyOp25
 70
     1
102
RTVSPropertyOp26
 70
     1
102
RTVSPropertyOp27
 70
     1
102
RTVSPropertyOp28
 70
     1
102
RTVSPropertyOp29
 70
     1
102
RTVSPropertyOp30
 70
     1
102
RTVSPropertyOp31
 70
     1
102
RTVSPropertyOp32
 70
     1
  0
XRECORD
  5
AE2
102
{ACAD_REACTORS
330
AE1
102
}
330
AE1
100
AcDbXrecord
280
     1
102
RTVSPropertyOp0
 70
     0
102
RTVSPropertyOp1
 70
     0
102
RTVSPropertyOp2
 70
     0
102
RTVSPropertyOp3
 70
     0
102
RTVSPropertyOp4
 70
     0
102
RTVSPropertyOp5
 70
     0
102
RTVSPropertyOp6
 70
     0
102
RTVSPropertyOp7
 70
     0
102
RTVSPropertyOp8
 70
     0
102
RTVSPropertyOp9
 70
     0
102
RTVSPropertyOp10
 70
     0
102
RTVSPropertyOp11
 70
     0
102
RTVSPropertyOp12
 70
     0
102
RTVSPropertyOp13
 70
     0
102
RTVSPropertyOp14
 70
     2
102
RTVSPropertyOp15
 70
     0
102
RTVSPropertyOp16
 70
     0
102
RTVSPropertyOp17
 70
     0
102
RTVSPropertyOp18
 70
     0
102
RTVSPropertyOp19
 70
     0
102
RTVSPropertyOp20
 70
     0
102
RTVSPropertyOp21
 70
     0
102
RTVSPropertyOp22
 70
     0
102
RTVSPropertyOp23
 70
     0
102
RTVSPropertyOp24
 70
     0
102
RTVSPropertyOp25
 70
     0
102
RTVSPropertyOp26
 70
     0
102
RTVSPropertyOp27
 70
     0
102
RTVSPropertyOp28
 70
     1
102
RTVSPropertyOp29
 70
     1
102
RTVSPropertyOp30
 70
     1
102
RTVSPropertyOp31
 70
     1
102
RTVSPropertyOp32
 70
     1
  0
XRECORD
  5
AD0
102
{ACAD_REACTORS
330
ACF
102
}
330
ACF
100
AcDbXrecord
280
     1
102
RTVSPropertyOp0
 70
     1
102
RTVSPropertyOp1
 70
     1
102
RTVSPropertyOp2
 70
     1
102
RTVSPropertyOp3
 70
     1
102
RTVSPropertyOp4
 70
     1
102
RTVSPropertyOp5
 70
     1
102
RTVSPropertyOp6
 70
     1
102
RTVSPropertyOp7
 70
     1
102
RTVSPropertyOp8
 70
     1
102
RTVSPropertyOp9
 70
     1
102
RTVSPropertyOp10
 70
     1
102
RTVSPropertyOp11
 70
     1
102
RTVSPropertyOp12
 70
     1
102
RTVSPropertyOp13
 70
     1
102
RTVSPropertyOp14
 70
     1
102
RTVSPropertyOp15
 70
     1
102
RTVSPropertyOp16
 70
     1
102
RTVSPropertyOp17
 70
     1
102
RTVSPropertyOp18
 70
     1
102
RTVSPropertyOp19
 70
     1
102
RTVSPropertyOp20
 70
     1
102
RTVSPropertyOp21
 70
     1
102
RTVSPropertyOp22
 70
     1
102
RTVSPropertyOp23
 70
     1
102
RTVSPropertyOp24
 70
     1
102
RTVSPropertyOp25
 70
     1
102
RTVSPropertyOp26
 70
     1
102
RTVSPropertyOp27
 70
     1
102
RTVSPropertyOp28
 70
     1
102
RTVSPropertyOp29
 70
     1
102
RTVSPropertyOp30
 70
     1
102
RTVSPropertyOp31
 70
     1
102
RTVSPropertyOp32
 70
     1
  0
XRECORD
  5
AB4
102
{ACAD_REACTORS
330
AB3
102
}
330
AB3
100
AcDbXrecord
280
     1
102
RTVSPropertyOp0
 70
     1
102
RTVSPropertyOp1
 70
     1
102
RTVSPropertyOp2
 70
     1
102
RTVSPropertyOp3
 70
     1
102
RTVSPropertyOp4
 70
     1
102
RTVSPropertyOp5
 70
     1
102
RTVSPropertyOp6
 70
     1
102
RTVSPropertyOp7
 70
     1
102
RTVSPropertyOp8
 70
     1
102
RTVSPropertyOp9
 70
     1
102
RTVSPropertyOp10
 70
     1
102
RTVSPropertyOp11
 70
     1
102
RTVSPropertyOp12
 70
     1
102
RTVSPropertyOp13
 70
     1
102
RTVSPropertyOp14
 70
     1
102
RTVSPropertyOp15
 70
     1
102
RTVSPropertyOp16
 70
     1
102
RTVSPropertyOp17
 70
     1
102
RTVSPropertyOp18
 70
     1
102
RTVSPropertyOp19
 70
     1
102
RTVSPropertyOp20
 70
     1
102
RTVSPropertyOp21
 70
     1
102
RTVSPropertyOp22
 70
     1
102
RTVSPropertyOp23
 70
     1
102
RTVSPropertyOp24
 70
     1
102
RTVSPropertyOp25
 70
     1
102
RTVSPropertyOp26
 70
     1
102
RTVSPropertyOp27
 70
     1
102
RTVSPropertyOp28
 70
     1
102
RTVSPropertyOp29
 70
     1
102
RTVSPropertyOp30
 70
     1
102
RTVSPropertyOp31
 70
     1
102
RTVSPropertyOp32
 70
     1
  0
XRECORD
  5
AB6
102
{ACAD_REACTORS
330
AB5
102
}
330
AB5
100
AcDbXrecord
280
     1
102
RTVSPropertyOp0
 70
     1
102
RTVSPropertyOp1
 70
     1
102
RTVSPropertyOp2
 70
     1
102
RTVSPropertyOp3
 70
     1
102
RTVSPropertyOp4
 70
     1
102
RTVSPropertyOp5
 70
     1
102
RTVSPropertyOp6
 70
     1
102
RTVSPropertyOp7
 70
     1
102
RTVSPropertyOp8
 70
     1
102
RTVSPropertyOp9
 70
     1
102
RTVSPropertyOp10
 70
     1
102
RTVSPropertyOp11
 70
     1
102
RTVSPropertyOp12
 70
     1
102
RTVSPropertyOp13
 70
     1
102
RTVSPropertyOp14
 70
     1
102
RTVSPropertyOp15
 70
     1
102
RTVSPropertyOp16
 70
     1
102
RTVSPropertyOp17
 70
     1
102
RTVSPropertyOp18
 70
     1
102
RTVSPropertyOp19
 70
     1
102
RTVSPropertyOp20
 70
     1
102
RTVSPropertyOp21
 70
     1
102
RTVSPropertyOp22
 70
     1
102
RTVSPropertyOp23
 70
     1
102
RTVSPropertyOp24
 70
     1
102
RTVSPropertyOp25
 70
     1
102
RTVSPropertyOp26
 70
     1
102
RTVSPropertyOp27
 70
     1
102
RTVSPropertyOp28
 70
     1
102
RTVSPropertyOp29
 70
     1
102
RTVSPropertyOp30
 70
     1
102
RTVSPropertyOp31
 70
     1
102
RTVSPropertyOp32
 70
     1
  0
XRECORD
  5
AB8
102
{ACAD_REACTORS
330
AB7
102
}
330
AB7
100
AcDbXrecord
280
     1
102
RTVSPropertyOp0
 70
     1
102
RTVSPropertyOp1
 70
     1
102
RTVSPropertyOp2
 70
     1
102
RTVSPropertyOp3
 70
     1
102
RTVSPropertyOp4
 70
     1
102
RTVSPropertyOp5
 70
     1
102
RTVSPropertyOp6
 70
     1
102
RTVSPropertyOp7
 70
     1
102
RTVSPropertyOp8
 70
     1
102
RTVSPropertyOp9
 70
     1
102
RTVSPropertyOp10
 70
     1
102
RTVSPropertyOp11
 70
     1
102
RTVSPropertyOp12
 70
     1
102
RTVSPropertyOp13
 70
     1
102
RTVSPropertyOp14
 70
     1
102
RTVSPropertyOp15
 70
     1
102
RTVSPropertyOp16
 70
     1
102
RTVSPropertyOp17
 70
     1
102
RTVSPropertyOp18
 70
     1
102
RTVSPropertyOp19
 70
     1
102
RTVSPropertyOp20
 70
     1
102
RTVSPropertyOp21
 70
     1
102
RTVSPropertyOp22
 70
     1
102
RTVSPropertyOp23
 70
     1
102
RTVSPropertyOp24
 70
     1
102
RTVSPropertyOp25
 70
     1
102
RTVSPropertyOp26
 70
     1
102
RTVSPropertyOp27
 70
     1
102
RTVSPropertyOp28
 70
     1
102
RTVSPropertyOp29
 70
     1
102
RTVSPropertyOp30
 70
     1
102
RTVSPropertyOp31
 70
     1
102
RTVSPropertyOp32
 70
     1
  0
XRECORD
  5
ABA
102
{ACAD_REACTORS
330
AB9
102
}
330
AB9
100
AcDbXrecord
280
     1
102
RTVSPropertyOp0
 70
     1
102
RTVSPropertyOp1
 70
     1
102
RTVSPropertyOp2
 70
     1
102
RTVSPropertyOp3
 70
     1
102
RTVSPropertyOp4
 70
     1
102
RTVSPropertyOp5
 70
     1
102
RTVSPropertyOp6
 70
     1
102
RTVSPropertyOp7
 70
     1
102
RTVSPropertyOp8
 70
     1
102
RTVSPropertyOp9
 70
     1
102
RTVSPropertyOp10
 70
     1
102
RTVSPropertyOp11
 70
     1
102
RTVSPropertyOp12
 70
     1
102
RTVSPropertyOp13
 70
     1
102
RTVSPropertyOp14
 70
     1
102
RTVSPropertyOp15
 70
     1
102
RTVSPropertyOp16
 70
     1
102
RTVSPropertyOp17
 70
     1
102
RTVSPropertyOp18
 70
     1
102
RTVSPropertyOp19
 70
     1
102
RTVSPropertyOp20
 70
     1
102
RTVSPropertyOp21
 70
     1
102
RTVSPropertyOp22
 70
     1
102
RTVSPropertyOp23
 70
     1
102
RTVSPropertyOp24
 70
     1
102
RTVSPropertyOp25
 70
     1
102
RTVSPropertyOp26
 70
     1
102
RTVSPropertyOp27
 70
     1
102
RTVSPropertyOp28
 70
     1
102
RTVSPropertyOp29
 70
     1
102
RTVSPropertyOp30
 70
     1
102
RTVSPropertyOp31
 70
     1
102
RTVSPropertyOp32
 70
     1
  0
XRECORD
  5
AC2
102
{ACAD_REACTORS
330
AC1
102
}
330
AC1
100
AcDbXrecord
280
     1
102
RTVSPropertyOp0
 70
     1
102
RTVSPropertyOp1
 70
     1
102
RTVSPropertyOp2
 70
     1
102
RTVSPropertyOp3
 70
     1
102
RTVSPropertyOp4
 70
     1
102
RTVSPropertyOp5
 70
     1
102
RTVSPropertyOp6
 70
     1
102
RTVSPropertyOp7
 70
     1
102
RTVSPropertyOp8
 70
     1
102
RTVSPropertyOp9
 70
     1
102
RTVSPropertyOp10
 70
     1
102
RTVSPropertyOp11
 70
     1
102
RTVSPropertyOp12
 70
     1
102
RTVSPropertyOp13
 70
     1
102
RTVSPropertyOp14
 70
     1
102
RTVSPropertyOp15
 70
     1
102
RTVSPropertyOp16
 70
     1
102
RTVSPropertyOp17
 70
     1
102
RTVSPropertyOp18
 70
     1
102
RTVSPropertyOp19
 70
     1
102
RTVSPropertyOp20
 70
     1
102
RTVSPropertyOp21
 70
     1
102
RTVSPropertyOp22
 70
     1
102
RTVSPropertyOp23
 70
     1
102
RTVSPropertyOp24
 70
     1
102
RTVSPropertyOp25
 70
     1
102
RTVSPropertyOp26
 70
     1
102
RTVSPropertyOp27
 70
     1
102
RTVSPropertyOp28
 70
     1
102
RTVSPropertyOp29
 70
     1
102
RTVSPropertyOp30
 70
     1
102
RTVSPropertyOp31
 70
     1
102
RTVSPropertyOp32
 70
     1
  0
XRECORD
  5
ADE
102
{ACAD_REACTORS
330
ADD
102
}
330
ADD
100
AcDbXrecord
280
     1
102
RTVSPropertyOp0
 70
     0
102
RTVSPropertyOp1
 70
     0
102
RTVSPropertyOp2
 70
     0
102
RTVSPropertyOp3
 70
     0
102
RTVSPropertyOp4
 70
     0
102
RTVSPropertyOp5
 70
     0
102
RTVSPropertyOp6
 70
     0
102
RTVSPropertyOp7
 70
     0
102
RTVSPropertyOp8
 70
     0
102
RTVSPropertyOp9
 70
     0
102
RTVSPropertyOp10
 70
     0
102
RTVSPropertyOp11
 70
     0
102
RTVSPropertyOp12
 70
     0
102
RTVSPropertyOp13
 70
     0
102
RTVSPropertyOp14
 70
     2
102
RTVSPropertyOp15
 70
     0
102
RTVSPropertyOp16
 70
     0
102
RTVSPropertyOp17
 70
     0
102
RTVSPropertyOp18
 70
     0
102
RTVSPropertyOp19
 70
     0
102
RTVSPropertyOp20
 70
     0
102
RTVSPropertyOp21
 70
     0
102
RTVSPropertyOp22
 70
     0
102
RTVSPropertyOp23
 70
     0
102
RTVSPropertyOp24
 70
     0
102
RTVSPropertyOp25
 70
     0
102
RTVSPropertyOp26
 70
     0
102
RTVSPropertyOp27
 70
     0
102
RTVSPropertyOp28
 70
     1
102
RTVSPropertyOp29
 70
     1
102
RTVSPropertyOp30
 70
     1
102
RTVSPropertyOp31
 70
     1
102
RTVSPropertyOp32
 70
     1
  0
XRECORD
  5
ACE
102
{ACAD_REACTORS
330
ACD
102
}
330
ACD
100
AcDbXrecord
280
     1
102
RTVSPropertyOp0
 70
     1
102
RTVSPropertyOp1
 70
     1
102
RTVSPropertyOp2
 70
     1
102
RTVSPropertyOp3
 70
     1
102
RTVSPropertyOp4
 70
     1
102
RTVSPropertyOp5
 70
     1
102
RTVSPropertyOp6
 70
     1
102
RTVSPropertyOp7
 70
     1
102
RTVSPropertyOp8
 70
     1
102
RTVSPropertyOp9
 70
     1
102
RTVSPropertyOp10
 70
     1
102
RTVSPropertyOp11
 70
     1
102
RTVSPropertyOp12
 70
     1
102
RTVSPropertyOp13
 70
     1
102
RTVSPropertyOp14
 70
     1
102
RTVSPropertyOp15
 70
     1
102
RTVSPropertyOp16
 70
     1
102
RTVSPropertyOp17
 70
     1
102
RTVSPropertyOp18
 70
     1
102
RTVSPropertyOp19
 70
     1
102
RTVSPropertyOp20
 70
     1
102
RTVSPropertyOp21
 70
     1
102
RTVSPropertyOp22
 70
     1
102
RTVSPropertyOp23
 70
     1
102
RTVSPropertyOp24
 70
     1
102
RTVSPropertyOp25
 70
     1
102
RTVSPropertyOp26
 70
     1
102
RTVSPropertyOp27
 70
     1
102
RTVSPropertyOp28
 70
     1
102
RTVSPropertyOp29
 70
     1
102
RTVSPropertyOp30
 70
     1
102
RTVSPropertyOp31
 70
     1
102
RTVSPropertyOp32
 70
     1
  0
XRECORD
  5
AE0
102
{ACAD_REACTORS
330
ADF
102
}
330
ADF
100
AcDbXrecord
280
     1
102
RTVSPropertyOp0
 70
     0
102
RTVSPropertyOp1
 70
     0
102
RTVSPropertyOp2
 70
     0
102
RTVSPropertyOp3
 70
     0
102
RTVSPropertyOp4
 70
     0
102
RTVSPropertyOp5
 70
     0
102
RTVSPropertyOp6
 70
     0
102
RTVSPropertyOp7
 70
     0
102
RTVSPropertyOp8
 70
     0
102
RTVSPropertyOp9
 70
     0
102
RTVSPropertyOp10
 70
     0
102
RTVSPropertyOp11
 70
     0
102
RTVSPropertyOp12
 70
     0
102
RTVSPropertyOp13
 70
     0
102
RTVSPropertyOp14
 70
     2
102
RTVSPropertyOp15
 70
     0
102
RTVSPropertyOp16
 70
     0
102
RTVSPropertyOp17
 70
     0
102
RTVSPropertyOp18
 70
     0
102
RTVSPropertyOp19
 70
     0
102
RTVSPropertyOp20
 70
     0
102
RTVSPropertyOp21
 70
     0
102
RTVSPropertyOp22
 70
     0
102
RTVSPropertyOp23
 70
     0
102
RTVSPropertyOp24
 70
     0
102
RTVSPropertyOp25
 70
     0
102
RTVSPropertyOp26
 70
     0
102
RTVSPropertyOp27
 70
     0
102
RTVSPropertyOp28
 70
     1
102
RTVSPropertyOp29
 70
     1
102
RTVSPropertyOp30
 70
     1
102
RTVSPropertyOp31
 70
     1
102
RTVSPropertyOp32
 70
     1
  0
XRECORD
  5
AC6
102
{ACAD_REACTORS
330
AC5
102
}
330
AC5
100
AcDbXrecord
280
     1
102
RTVSPropertyOp0
 70
     1
102
RTVSPropertyOp1
 70
     1
102
RTVSPropertyOp2
 70
     1
102
RTVSPropertyOp3
 70
     1
102
RTVSPropertyOp4
 70
     1
102
RTVSPropertyOp5
 70
     1
102
RTVSPropertyOp6
 70
     1
102
RTVSPropertyOp7
 70
     1
102
RTVSPropertyOp8
 70
     1
102
RTVSPropertyOp9
 70
     1
102
RTVSPropertyOp10
 70
     1
102
RTVSPropertyOp11
 70
     1
102
RTVSPropertyOp12
 70
     1
102
RTVSPropertyOp13
 70
     1
102
RTVSPropertyOp14
 70
     1
102
RTVSPropertyOp15
 70
     1
102
RTVSPropertyOp16
 70
     1
102
RTVSPropertyOp17
 70
     1
102
RTVSPropertyOp18
 70
     1
102
RTVSPropertyOp19
 70
     1
102
RTVSPropertyOp20
 70
     1
102
RTVSPropertyOp21
 70
     1
102
RTVSPropertyOp22
 70
     1
102
RTVSPropertyOp23
 70
     1
102
RTVSPropertyOp24
 70
     1
102
RTVSPropertyOp25
 70
     1
102
RTVSPropertyOp26
 70
     1
102
RTVSPropertyOp27
 70
     1
102
RTVSPropertyOp28
 70
     1
102
RTVSPropertyOp29
 70
     1
102
RTVSPropertyOp30
 70
     1
102
RTVSPropertyOp31
 70
     1
102
RTVSPropertyOp32
 70
     1
  0
XRECORD
  5
ADC
102
{ACAD_REACTORS
330
ADB
102
}
330
ADB
100
AcDbXrecord
280
     1
102
RTVSPropertyOp0
 70
     1
102
RTVSPropertyOp1
 70
     1
102
RTVSPropertyOp2
 70
     1
102
RTVSPropertyOp3
 70
     1
102
RTVSPropertyOp4
 70
     1
102
RTVSPropertyOp5
 70
     1
102
RTVSPropertyOp6
 70
     1
102
RTVSPropertyOp7
 70
     1
102
RTVSPropertyOp8
 70
     1
102
RTVSPropertyOp9
 70
     1
102
RTVSPropertyOp10
 70
     1
102
RTVSPropertyOp11
 70
     1
102
RTVSPropertyOp12
 70
     1
102
RTVSPropertyOp13
 70
     1
102
RTVSPropertyOp14
 70
     1
102
RTVSPropertyOp15
 70
     1
102
RTVSPropertyOp16
 70
     1
102
RTVSPropertyOp17
 70
     1
102
RTVSPropertyOp18
 70
     1
102
RTVSPropertyOp19
 70
     1
102
RTVSPropertyOp20
 70
     1
102
RTVSPropertyOp21
 70
     1
102
RTVSPropertyOp22
 70
     1
102
RTVSPropertyOp23
 70
     1
102
RTVSPropertyOp24
 70
     1
102
RTVSPropertyOp25
 70
     1
102
RTVSPropertyOp26
 70
     1
102
RTVSPropertyOp27
 70
     1
102
RTVSPropertyOp28
 70
     1
102
RTVSPropertyOp29
 70
     1
102
RTVSPropertyOp30
 70
     1
102
RTVSPropertyOp31
 70
     1
102
RTVSPropertyOp32
 70
     1
  0
XRECORD
  5
ADA
102
{ACAD_REACTORS
330
AD9
102
}
330
AD9
100
AcDbXrecord
280
     1
102
RTVSPropertyOp0
 70
     1
102
RTVSPropertyOp1
 70
     1
102
RTVSPropertyOp2
 70
     1
102
RTVSPropertyOp3
 70
     1
102
RTVSPropertyOp4
 70
     1
102
RTVSPropertyOp5
 70
     1
102
RTVSPropertyOp6
 70
     1
102
RTVSPropertyOp7
 70
     1
102
RTVSPropertyOp8
 70
     1
102
RTVSPropertyOp9
 70
     1
102
RTVSPropertyOp10
 70
     1
102
RTVSPropertyOp11
 70
     1
102
RTVSPropertyOp12
 70
     1
102
RTVSPropertyOp13
 70
     1
102
RTVSPropertyOp14
 70
     1
102
RTVSPropertyOp15
 70
     1
102
RTVSPropertyOp16
 70
     1
102
RTVSPropertyOp17
 70
     1
102
RTVSPropertyOp18
 70
     1
102
RTVSPropertyOp19
 70
     1
102
RTVSPropertyOp20
 70
     1
102
RTVSPropertyOp21
 70
     1
102
RTVSPropertyOp22
 70
     1
102
RTVSPropertyOp23
 70
     1
102
RTVSPropertyOp24
 70
     1
102
RTVSPropertyOp25
 70
     1
102
RTVSPropertyOp26
 70
     1
102
RTVSPropertyOp27
 70
     1
102
RTVSPropertyOp28
 70
     1
102
RTVSPropertyOp29
 70
     1
102
RTVSPropertyOp30
 70
     1
102
RTVSPropertyOp31
 70
     1
102
RTVSPropertyOp32
 70
     1
  0
XRECORD
  5
AD4
102
{ACAD_REACTORS
330
AD3
102
}
330
AD3
100
AcDbXrecord
280
     1
102
RTVSPropertyOp0
 70
     1
102
RTVSPropertyOp1
 70
     1
102
RTVSPropertyOp2
 70
     1
102
RTVSPropertyOp3
 70
     1
102
RTVSPropertyOp4
 70
     1
102
RTVSPropertyOp5
 70
     1
102
RTVSPropertyOp6
 70
     1
102
RTVSPropertyOp7
 70
     1
102
RTVSPropertyOp8
 70
     1
102
RTVSPropertyOp9
 70
     1
102
RTVSPropertyOp10
 70
     1
102
RTVSPropertyOp11
 70
     1
102
RTVSPropertyOp12
 70
     1
102
RTVSPropertyOp13
 70
     1
102
RTVSPropertyOp14
 70
     1
102
RTVSPropertyOp15
 70
     1
102
RTVSPropertyOp16
 70
     1
102
RTVSPropertyOp17
 70
     1
102
RTVSPropertyOp18
 70
     1
102
RTVSPropertyOp19
 70
     1
102
RTVSPropertyOp20
 70
     1
102
RTVSPropertyOp21
 70
     1
102
RTVSPropertyOp22
 70
     1
102
RTVSPropertyOp23
 70
     1
102
RTVSPropertyOp24
 70
     1
102
RTVSPropertyOp25
 70
     1
102
RTVSPropertyOp26
 70
     1
102
RTVSPropertyOp27
 70
     1
102
RTVSPropertyOp28
 70
     1
102
RTVSPropertyOp29
 70
     1
102
RTVSPropertyOp30
 70
     1
102
RTVSPropertyOp31
 70
     1
102
RTVSPropertyOp32
 70
     1
  0
XRECORD
  5
AD6
102
{ACAD_REACTORS
330
AD5
102
}
330
AD5
100
AcDbXrecord
280
     1
102
RTVSPropertyOp0
 70
     1
102
RTVSPropertyOp1
 70
     1
102
RTVSPropertyOp2
 70
     1
102
RTVSPropertyOp3
 70
     1
102
RTVSPropertyOp4
 70
     1
102
RTVSPropertyOp5
 70
     1
102
RTVSPropertyOp6
 70
     1
102
RTVSPropertyOp7
 70
     1
102
RTVSPropertyOp8
 70
     1
102
RTVSPropertyOp9
 70
     1
102
RTVSPropertyOp10
 70
     1
102
RTVSPropertyOp11
 70
     1
102
RTVSPropertyOp12
 70
     1
102
RTVSPropertyOp13
 70
     1
102
RTVSPropertyOp14
 70
     1
102
RTVSPropertyOp15
 70
     1
102
RTVSPropertyOp16
 70
     1
102
RTVSPropertyOp17
 70
     1
102
RTVSPropertyOp18
 70
     1
102
RTVSPropertyOp19
 70
     1
102
RTVSPropertyOp20
 70
     1
102
RTVSPropertyOp21
 70
     1
102
RTVSPropertyOp22
 70
     1
102
RTVSPropertyOp23
 70
     1
102
RTVSPropertyOp24
 70
     1
102
RTVSPropertyOp25
 70
     1
102
RTVSPropertyOp26
 70
     1
102
RTVSPropertyOp27
 70
     1
102
RTVSPropertyOp28
 70
     1
102
RTVSPropertyOp29
 70
     1
102
RTVSPropertyOp30
 70
     1
102
RTVSPropertyOp31
 70
     1
102
RTVSPropertyOp32
 70
     1
  0
XRECORD
  5
ACC
102
{ACAD_REACTORS
330
ACB
102
}
330
ACB
100
AcDbXrecord
280
     1
102
RTVSPropertyOp0
 70
     1
102
RTVSPropertyOp1
 70
     1
102
RTVSPropertyOp2
 70
     1
102
RTVSPropertyOp3
 70
     1
102
RTVSPropertyOp4
 70
     1
102
RTVSPropertyOp5
 70
     1
102
RTVSPropertyOp6
 70
     1
102
RTVSPropertyOp7
 70
     1
102
RTVSPropertyOp8
 70
     1
102
RTVSPropertyOp9
 70
     1
102
RTVSPropertyOp10
 70
     1
102
RTVSPropertyOp11
 70
     1
102
RTVSPropertyOp12
 70
     1
102
RTVSPropertyOp13
 70
     1
102
RTVSPropertyOp14
 70
     1
102
RTVSPropertyOp15
 70
     1
102
RTVSPropertyOp16
 70
     1
102
RTVSPropertyOp17
 70
     1
102
RTVSPropertyOp18
 70
     1
102
RTVSPropertyOp19
 70
     1
102
RTVSPropertyOp20
 70
     1
102
RTVSPropertyOp21
 70
     1
102
RTVSPropertyOp22
 70
     1
102
RTVSPropertyOp23
 70
     1
102
RTVSPropertyOp24
 70
     1
102
RTVSPropertyOp25
 70
     1
102
RTVSPropertyOp26
 70
     1
102
RTVSPropertyOp27
 70
     1
102
RTVSPropertyOp28
 70
     1
102
RTVSPropertyOp29
 70
     1
102
RTVSPropertyOp30
 70
     1
102
RTVSPropertyOp31
 70
     1
102
RTVSPropertyOp32
 70
     1
  0
XRECORD
  5
AC0
102
{ACAD_REACTORS
330
ABF
102
}
330
ABF
100
AcDbXrecord
280
     1
102
RTVSPropertyOp0
 70
     1
102
RTVSPropertyOp1
 70
     1
102
RTVSPropertyOp2
 70
     1
102
RTVSPropertyOp3
 70
     1
102
RTVSPropertyOp4
 70
     1
102
RTVSPropertyOp5
 70
     1
102
RTVSPropertyOp6
 70
     1
102
RTVSPropertyOp7
 70
     1
102
RTVSPropertyOp8
 70
     1
102
RTVSPropertyOp9
 70
     1
102
RTVSPropertyOp10
 70
     1
102
RTVSPropertyOp11
 70
     1
102
RTVSPropertyOp12
 70
     1
102
RTVSPropertyOp13
 70
     1
102
RTVSPropertyOp14
 70
     1
102
RTVSPropertyOp15
 70
     1
102
RTVSPropertyOp16
 70
     1
102
RTVSPropertyOp17
 70
     1
102
RTVSPropertyOp18
 70
     1
102
RTVSPropertyOp19
 70
     1
102
RTVSPropertyOp20
 70
     1
102
RTVSPropertyOp21
 70
     1
102
RTVSPropertyOp22
 70
     1
102
RTVSPropertyOp23
 70
     1
102
RTVSPropertyOp24
 70
     1
102
RTVSPropertyOp25
 70
     1
102
RTVSPropertyOp26
 70
     1
102
RTVSPropertyOp27
 70
     1
102
RTVSPropertyOp28
 70
     1
102
RTVSPropertyOp29
 70
     1
102
RTVSPropertyOp30
 70
     1
102
RTVSPropertyOp31
 70
     1
102
RTVSPropertyOp32
 70
     1
  0
XRECORD
  5
AD8
102
{ACAD_REACTORS
330
AD7
102
}
330
AD7
100
AcDbXrecord
280
     1
102
RTVSPropertyOp0
 70
     1
102
RTVSPropertyOp1
 70
     1
102
RTVSPropertyOp2
 70
     1
102
RTVSPropertyOp3
 70
     1
102
RTVSPropertyOp4
 70
     1
102
RTVSPropertyOp5
 70
     1
102
RTVSPropertyOp6
 70
     1
102
RTVSPropertyOp7
 70
     1
102
RTVSPropertyOp8
 70
     1
102
RTVSPropertyOp9
 70
     1
102
RTVSPropertyOp10
 70
     1
102
RTVSPropertyOp11
 70
     1
102
RTVSPropertyOp12
 70
     1
102
RTVSPropertyOp13
 70
     1
102
RTVSPropertyOp14
 70
     1
102
RTVSPropertyOp15
 70
     1
102
RTVSPropertyOp16
 70
     1
102
RTVSPropertyOp17
 70
     1
102
RTVSPropertyOp18
 70
     1
102
RTVSPropertyOp19
 70
     1
102
RTVSPropertyOp20
 70
     1
102
RTVSPropertyOp21
 70
     1
102
RTVSPropertyOp22
 70
     1
102
RTVSPropertyOp23
 70
     1
102
RTVSPropertyOp24
 70
     1
102
RTVSPropertyOp25
 70
     1
102
RTVSPropertyOp26
 70
     1
102
RTVSPropertyOp27
 70
     1
102
RTVSPropertyOp28
 70
     1
102
RTVSPropertyOp29
 70
     1
102
RTVSPropertyOp30
 70
     1
102
RTVSPropertyOp31
 70
     1
102
RTVSPropertyOp32
 70
     1
  0
ENDSEC
  0
EOF
