  0
SECTION
  2
HEADER
  9
$ACADVER
  1
AC1015
  9
$ACADMAINTVER
 70
    20
  9
$DWGCODEPAGE
  3
ANSI_932
  9
$INSBASE
 10
0.0
 20
0.0
 30
0.0
  9
$EXTMIN
 10
-0.1016371672158129
 20
-0.4165460786025506
 30
-0.0000000000000129
  9
$EXTMAX
 10
1680.075274041592
 20
1188.427861854921
 30
0.0000000000000023
  9
$LIMMIN
 10
0.0
 20
0.0
  9
$LIMMAX
 10
1680.0
 20
1188.0
  9
$ORTHOMODE
 70
     0
  9
$REGENMODE
 70
     1
  9
$FILLMODE
 70
     1
  9
$QTEXTMODE
 70
     0
  9
$MIRRTEXT
 70
     1
  9
$LTSCALE
 40
33.6
  9
$ATTMODE
 70
     1
  9
$TEXTSIZE
 40
0.2
  9
$TRACEWID
 40
0.05
  9
$TEXTSTYLE
  7
STANDARD
  9
$CLAYER
  8
LEVEL001
  9
$CELTYPE
  6
CONTINUOUS
  9
$CECOLOR
 62
   256
  9
$CELTSCALE
 40
1.0
  9
$DISPSILH
 70
     0
  9
$DIMSCALE
 40
1.0
  9
$DIMASZ
 40
0.18
  9
$DIMEXO
 40
0.0625
  9
$DIMDLI
 40
0.38
  9
$DIMRND
 40
0.0
  9
$DIMDLE
 40
0.0
  9
$DIMEXE
 40
0.18
  9
$DIMTP
 40
0.0
  9
$DIMTM
 40
0.0
  9
$DIMTXT
 40
0.18
  9
$DIMCEN
 40
0.09
  9
$DIMTSZ
 40
0.0
  9
$DIMTOL
 70
     0
  9
$DIMLIM
 70
     0
  9
$DIMTIH
 70
     1
  9
$DIMTOH
 70
     1
  9
$DIMSE1
 70
     0
  9
$DIMSE2
 70
     0
  9
$DIMTAD
 70
     0
  9
$DIMZIN
 70
     0
  9
$DIMBLK
  1

  9
$DIMASO
 70
     1
  9
$DIMSHO
 70
     1
  9
$DIMPOST
  1

  9
$DIMAPOST
  1

  9
$DIMALT
 70
     0
  9
$DIMALTD
 70
     2
  9
$DIMALTF
 40
25.4
  9
$DIMLFAC
 40
1.0
  9
$DIMTOFL
 70
     0
  9
$DIMTVP
 40
0.0
  9
$DIMTIX
 70
     0
  9
$DIMSOXD
 70
     0
  9
$DIMSAH
 70
     0
  9
$DIMBLK1
  1

  9
$DIMBLK2
  1

  9
$DIMSTYLE
  2
STANDARD
  9
$DIMCLRD
 70
     0
  9
$DIMCLRE
 70
     0
  9
$DIMCLRT
 70
     0
  9
$DIMTFAC
 40
1.0
  9
$DIMGAP
 40
0.09
  9
$DIMJUST
 70
     0
  9
$DIMSD1
 70
     0
  9
$DIMSD2
 70
     0
  9
$DIMTOLJ
 70
     1
  9
$DIMTZIN
 70
     0
  9
$DIMALTZ
 70
     0
  9
$DIMALTTZ
 70
     0
  9
$DIMUPT
 70
     0
  9
$DIMDEC
 70
     4
  9
$DIMTDEC
 70
     4
  9
$DIMALTU
 70
     2
  9
$DIMALTTD
 70
     2
  9
$DIMTXSTY
  7
STANDARD
  9
$DIMAUNIT
 70
     0
  9
$DIMADEC
 70
     0
  9
$DIMALTRND
 40
0.0
  9
$DIMAZIN
 70
     0
  9
$DIMDSEP
 70
    46
  9
$DIMATFIT
 70
     3
  9
$DIMFRAC
 70
     0
  9
$DIMLDRBLK
  1

  9
$DIMLUNIT
 70
     2
  9
$DIMLWD
 70
    -2
  9
$DIMLWE
 70
    -2
  9
$DIMTMOVE
 70
     0
  9
$LUNITS
 70
     2
  9
$LUPREC
 70
     4
  9
$SKETCHINC
 40
0.1
  9
$FILLETRAD
 40
0.0
  9
$AUNITS
 70
     0
  9
$AUPREC
 70
     0
  9
$MENU
  1
.
  9
$ELEVATION
 40
0.0
  9
$PELEVATION
 40
0.0
  9
$THICKNESS
 40
0.0
  9
$LIMCHECK
 70
     0
  9
$CHAMFERA
 40
0.0
  9
$CHAMFERB
 40
0.0
  9
$CHAMFERC
 40
0.0
  9
$CHAMFERD
 40
0.0
  9
$SKPOLY
 70
     0
  9
$TDCREATE
 40
2451212.682759178
  9
$TDUCREATE
 40
2451212.307759178
  9
$TDUPDATE
 40
2458321.551321308
  9
$TDUUPDATE
 40
2458321.176321308
  9
$TDINDWG
 40
0.3947621181
  9
$TDUSRTIMER
 40
0.3947621181
  9
$USRTIMER
 70
     1
  9
$ANGBASE
 50
0.0
  9
$ANGDIR
 70
     0
  9
$PDMODE
 70
     0
  9
$PDSIZE
 40
0.0
  9
$PLINEWID
 40
0.0
  9
$SPLFRAME
 70
     0
  9
$SPLINETYPE
 70
     6
  9
$SPLINESEGS
 70
     8
  9
$HANDSEED
  5
14574
  9
$SURFTAB1
 70
     6
  9
$SURFTAB2
 70
     6
  9
$SURFTYPE
 70
     6
  9
$SURFU
 70
     6
  9
$SURFV
 70
     6
  9
$UCSBASE
  2

  9
$UCSNAME
  2

  9
$UCSORG
 10
0.0
 20
0.0
 30
0.0
  9
$UCSXDIR
 10
1.0
 20
0.0
 30
0.0
  9
$UCSYDIR
 10
0.0
 20
1.0
 30
0.0
  9
$UCSORTHOREF
  2

  9
$UCSORTHOVIEW
 70
     0
  9
$UCSORGTOP
 10
0.0
 20
0.0
 30
0.0
  9
$UCSORGBOTTOM
 10
0.0
 20
0.0
 30
0.0
  9
$UCSORGLEFT
 10
0.0
 20
0.0
 30
0.0
  9
$UCSORGRIGHT
 10
0.0
 20
0.0
 30
0.0
  9
$UCSORGFRONT
 10
0.0
 20
0.0
 30
0.0
  9
$UCSORGBACK
 10
0.0
 20
0.0
 30
0.0
  9
$PUCSBASE
  2

  9
$PUCSNAME
  2

  9
$PUCSORG
 10
0.0
 20
0.0
 30
0.0
  9
$PUCSXDIR
 10
1.0
 20
0.0
 30
0.0
  9
$PUCSYDIR
 10
0.0
 20
1.0
 30
0.0
  9
$PUCSORTHOREF
  2

  9
$PUCSORTHOVIEW
 70
     0
  9
$PUCSORGTOP
 10
0.0
 20
0.0
 30
0.0
  9
$PUCSORGBOTTOM
 10
0.0
 20
0.0
 30
0.0
  9
$PUCSORGLEFT
 10
0.0
 20
0.0
 30
0.0
  9
$PUCSORGRIGHT
 10
0.0
 20
0.0
 30
0.0
  9
$PUCSORGFRONT
 10
0.0
 20
0.0
 30
0.0
  9
$PUCSORGBACK
 10
0.0
 20
0.0
 30
0.0
  9
$USERI1
 70
     0
  9
$USERI2
 70
     0
  9
$USERI3
 70
     0
  9
$USERI4
 70
     0
  9
$USERI5
 70
     0
  9
$USERR1
 40
0.0
  9
$USERR2
 40
0.0
  9
$USERR3
 40
0.0
  9
$USERR4
 40
0.0
  9
$USERR5
 40
0.0
  9
$WORLDVIEW
 70
     1
  9
$SHADEDGE
 70
     3
  9
$SHADEDIF
 70
    70
  9
$TILEMODE
 70
     1
  9
$MAXACTVP
 70
    16
  9
$PINSBASE
 10
0.0
 20
0.0
 30
0.0
  9
$PLIMCHECK
 70
     0
  9
$PEXTMIN
 10
1.000000000000000E+20
 20
1.000000000000000E+20
 30
1.000000000000000E+20
  9
$PEXTMAX
 10
-1.000000000000000E+20
 20
-1.000000000000000E+20
 30
-1.000000000000000E+20
  9
$PLIMMIN
 10
0.0
 20
0.0
  9
$PLIMMAX
 10
12.0
 20
9.0
  9
$UNITMODE
 70
     0
  9
$VISRETAIN
 70
     1
  9
$PLINEGEN
 70
     0
  9
$PSLTSCALE
 70
     1
  9
$TREEDEPTH
 70
  3020
  9
$CMLSTYLE
  2
STANDARD
  9
$CMLJUST
 70
     0
  9
$CMLSCALE
 40
1.0
  9
$PROXYGRAPHICS
 70
     1
  9
$MEASUREMENT
 70
     0
  9
$CELWEIGHT
370
    -1
  9
$ENDCAPS
280
     0
  9
$JOINSTYLE
280
     0
  9
$LWDISPLAY
290
     0
  9
$INSUNITS
 70
     0
  9
$HYPERLINKBASE
  1

  9
$STYLESHEET
  1

  9
$XEDIT
290
     1
  9
$CEPSNTYPE
380
     0
  9
$PSTYLEMODE
290
     0
  9
$FINGERPRINTGUID
  2
{CEB546B5-3475-4345-9716-9E0C52716ACD}
  9
$VERSIONGUID
  2
{A7BA7FD2-8FBA-4686-AA50-B013736203F4}
  9
$EXTNAMES
290
     1
  9
$PSVPSCALE
 40
0.0
  9
$OLESTARTUP
290
     0
  0
ENDSEC
  0
SECTION
  2
CLASSES
  0
CLASS
  1
ACDBDICTIONARYWDFLT
  2
AcDbDictionaryWithDefault
  3
ObjectDBX Classes
 90
        0
280
     0
281
     0
  0
CLASS
  1
TABLESTYLE
  2
AcDbTableStyle
  3
ObjectDBX Classes
 90
     4095
280
     0
281
     0
  0
CLASS
  1
SORTENTSTABLE
  2
AcDbSortentsTable
  3
ObjectDBX Classes
 90
        0
280
     0
281
     0
  0
CLASS
  1
DICTIONARYVAR
  2
AcDbDictionaryVar
  3
ObjectDBX Classes
 90
        0
280
     0
281
     0
  0
CLASS
  1
ACDBPLACEHOLDER
  2
AcDbPlaceHolder
  3
ObjectDBX Classes
 90
        0
280
     0
281
     0
  0
CLASS
  1
LAYOUT
  2
AcDbLayout
  3
ObjectDBX Classes
 90
        0
280
     0
281
     0
  0
CLASS
  1
MATERIAL
  2
AcDbMaterial
  3
ObjectDBX Classes
 90
     1153
280
     0
281
     0
  0
CLASS
  1
VISUALSTYLE
  2
AcDbVisualStyle
  3
ObjectDBX Classes
 90
     4095
280
     0
281
     0
  0
CLASS
  1
SCALE
  2
AcDbScale
  3
ObjectDBX Classes
 90
     1153
280
     0
281
     0
  0
CLASS
  1
MLEADERSTYLE
  2
AcDbMLeaderStyle
  3
ACDB_MLEADERSTYLE_CLASS
 90
     4095
280
     0
281
     0
  0
CLASS
  1
CELLSTYLEMAP
  2
AcDbCellStyleMap
  3
ObjectDBX Classes
 90
     1152
280
     0
281
     0
  0
ENDSEC
  0
SECTION
  2
TABLES
  0
TABLE
  2
VPORT
  5
1
330
0
100
AcDbSymbolTable
 70
     1
  0
VPORT
  5
3DA1
330
1
100
AcDbSymbolTableRecord
100
AcDbViewportTableRecord
  2
*Active
 70
     0
 10
0.0
 20
0.0
 11
1.0
 21
1.0
 12
839.986818437188
 22
594.0056578881594
 13
0.0
 23
0.0
 14
1.0
 24
1.0
 15
0.0
 25
0.0
 16
0.0
 26
0.0
 36
1.0
 17
0.0
 27
0.0
 37
0.0
 40
1200.042314444672
 41
1.882075471698113
 42
50.0
 43
0.0
 44
0.0
 50
0.0
 51
0.0
 71
     0
 72
   100
 73
     1
 74
     1
 75
     0
 76
     0
 77
     0
 78
     0
281
     0
 65
     1
110
0.0
120
0.0
130
0.0
111
1.0
121
0.0
131
0.0
112
0.0
122
1.0
132
0.0
 79
     0
146
0.0
1001
ACAD_NAV_VCDISPLAY
1070
     3
  0
ENDTAB
  0
TABLE
  2
LTYPE
  5
69
330
0
100
AcDbSymbolTable
 70
     4
  0
LTYPE
  5
1D
330
69
100
AcDbSymbolTableRecord
100
AcDbLinetypeTableRecord
  2
BYBLOCK
 70
     0
  3

 72
    65
 73
     0
 40
0.0
  0
LTYPE
  5
1E
330
69
100
AcDbSymbolTableRecord
100
AcDbLinetypeTableRecord
  2
BYLAYER
 70
     0
  3

 72
    65
 73
     0
 40
0.0
  0
LTYPE
  5
1F
330
69
100
AcDbSymbolTableRecord
100
AcDbLinetypeTableRecord
  2
CONTINUOUS
 70
     0
  3
Solid line
 72
    65
 73
     0
 40
0.0
  0
LTYPE
  5
26
330
69
100
AcDbSymbolTableRecord
100
AcDbLinetypeTableRecord
  2
DASHDOT
 70
     0
  3
__ . __ . __ . __ . __ . __ . __ . __ . __ . __
 72
    65
 73
     4
 40
1.0
 49
0.5
 74
     0
 49
-0.25
 74
     0
 49
0.0
 74
     0
 49
-0.25
 74
     0
  0
LTYPE
  5
2F
330
69
100
AcDbSymbolTableRecord
100
AcDbLinetypeTableRecord
  2
DOT
 70
     0
  3
. . . . . . . . . . . . . . . . . . . . . . . .
 72
    65
 73
     2
 40
0.25
 49
0.0
 74
     0
 49
-0.25
 74
     0
  0
LTYPE
  5
32
330
69
100
AcDbSymbolTableRecord
100
AcDbLinetypeTableRecord
  2
HIDDEN
 70
     0
  3
__ __ __ __ __ __ __ __ __ __ __ __ __ __ __ __
 72
    65
 73
     2
 40
0.375
 49
0.25
 74
     0
 49
-0.125
 74
     0
  0
ENDTAB
  0
TABLE
  2
LAYER
  5
68
102
{ACAD_XDICTIONARY
360
4CA3
102
}
330
0
100
AcDbSymbolTable
 70
    11
  0
LAYER
  5
38
102
{ACAD_XDICTIONARY
360
473F
102
}
330
68
100
AcDbSymbolTableRecord
100
AcDbLayerTableRecord
  2
0
 70
     0
 62
     7
  6
CONTINUOUS
370
    -3
390
37ED
  0
LAYER
  5
39
102
{ACAD_XDICTIONARY
360
4741
102
}
330
68
100
AcDbSymbolTableRecord
100
AcDbLayerTableRecord
  2
LEVEL001
 70
     0
 62
     7
  6
CONTINUOUS
370
    -3
390
37ED
  0
LAYER
  5
474B
102
{ACAD_XDICTIONARY
360
474C
102
}
330
68
100
AcDbSymbolTableRecord
100
AcDbLayerTableRecord
  2
LEVEL002
 70
     0
 62
     7
  6
CONTINUOUS
370
    -3
390
37ED
  0
LAYER
  5
474D
102
{ACAD_XDICTIONARY
360
474E
102
}
330
68
100
AcDbSymbolTableRecord
100
AcDbLayerTableRecord
  2
LEVEL003
 70
     0
 62
     7
  6
CONTINUOUS
370
    -3
390
37ED
  0
LAYER
  5
474F
102
{ACAD_XDICTIONARY
360
4750
102
}
330
68
100
AcDbSymbolTableRecord
100
AcDbLayerTableRecord
  2
LEVEL004
 70
     0
 62
     7
  6
CONTINUOUS
370
    -3
390
37ED
  0
LAYER
  5
4751
102
{ACAD_XDICTIONARY
360
4752
102
}
330
68
100
AcDbSymbolTableRecord
100
AcDbLayerTableRecord
  2
LEVEL007
 70
     0
 62
     7
  6
CONTINUOUS
370
    -3
390
37ED
  0
LAYER
  5
4753
330
68
100
AcDbSymbolTableRecord
100
AcDbLayerTableRecord
  2
1
 70
     0
 62
     7
  6
CONTINUOUS
370
    -3
390
37ED
1001
AcAecLayerStandard
1000

1000

  0
LAYER
  5
A90E
330
68
100
AcDbSymbolTableRecord
100
AcDbLayerTableRecord
  2
LEVEL008
 70
     0
 62
     7
  6
CONTINUOUS
370
    -3
390
37ED
  0
LAYER
  5
A90F
330
68
100
AcDbSymbolTableRecord
100
AcDbLayerTableRecord
  2
LEVEL010
 70
     0
 62
     7
  6
CONTINUOUS
370
    -3
390
37ED
  0
LAYER
  5
A910
330
68
100
AcDbSymbolTableRecord
100
AcDbLayerTableRecord
  2
LEVEL011
 70
     0
 62
     7
  6
CONTINUOUS
370
    -3
390
37ED
  0
LAYER
  5
A911
330
68
100
AcDbSymbolTableRecord
100
AcDbLayerTableRecord
  2
LEVEL012
 70
     0
 62
     7
  6
CONTINUOUS
370
    -3
390
37ED
  0
ENDTAB
  0
TABLE
  2
STYLE
  5
6
330
0
100
AcDbSymbolTable
 70
     1
  0
STYLE
  5
7
330
6
100
AcDbSymbolTableRecord
100
AcDbTextStyleTableRecord
  2
STANDARD
 70
     0
 40
0.0
 41
0.8
 50
0.0
 71
     0
 42
0.2
  3
TXT.shx
  4
BIGFONT.shx
  0
ENDTAB
  0
TABLE
  2
VIEW
  5
2
330
0
100
AcDbSymbolTable
 70
     0
  0
ENDTAB
  0
TABLE
  2
UCS
  5
3
330
0
100
AcDbSymbolTable
 70
     0
  0
ENDTAB
  0
TABLE
  2
APPID
  5
4
330
0
100
AcDbSymbolTable
 70
     8
  0
APPID
  5
5
330
4
100
AcDbSymbolTableRecord
100
AcDbRegAppTableRecord
  2
ACAD
 70
     0
  0
APPID
  5
385F
330
4
100
AcDbSymbolTableRecord
100
AcDbRegAppTableRecord
  2
ACAD_PSEXT
 70
     0
  0
APPID
  5
3DF1
330
4
100
AcDbSymbolTableRecord
100
AcDbRegAppTableRecord
  2
ACAD_NAV_VCDISPLAY
 70
     0
  0
APPID
  5
3ECF
330
4
100
AcDbSymbolTableRecord
100
AcDbRegAppTableRecord
  2
GradientColor1ACI
 70
     0
  0
APPID
  5
3ED0
330
4
100
AcDbSymbolTableRecord
100
AcDbRegAppTableRecord
  2
GradientColor2ACI
 70
     0
  0
APPID
  5
3ED2
330
4
100
AcDbSymbolTableRecord
100
AcDbRegAppTableRecord
  2
ACAD_EXEMPT_FROM_CAD_STANDARDS
 70
     0
  0
APPID
  5
4754
330
4
100
AcDbSymbolTableRecord
100
AcDbRegAppTableRecord
  2
AcAecLayerStandard
 70
     0
  0
APPID
  5
14573
330
4
100
AcDbSymbolTableRecord
100
AcDbRegAppTableRecord
  2
ACAD_MLEADERVER
 70
     0
  0
ENDTAB
  0
TABLE
  2
DIMSTYLE
  5
67
330
0
100
AcDbSymbolTable
 70
     1
100
AcDbDimStyleTable
 71
     1
340
3C
  0
DIMSTYLE
105
3C
330
67
100
AcDbSymbolTableRecord
100
AcDbDimStyleTableRecord
  2
STANDARD
 70
     0
340
7
  0
ENDTAB
  0
TABLE
  2
BLOCK_RECORD
  5
9
330
0
100
AcDbSymbolTable
 70
     0
  0
BLOCK_RECORD
  5
A
102
{ACAD_XDICTIONARY
360
37FA
102
}
330
9
100
AcDbSymbolTableRecord
100
AcDbBlockTableRecord
  2
*MODEL_SPACE
340
37F4
  0
BLOCK_RECORD
  5
B
330
9
100
AcDbSymbolTableRecord
100
AcDbBlockTableRecord
  2
*PAPER_SPACE
340
37F5
  0
ENDTAB
  0
ENDSEC
  0
SECTION
  2
BLOCKS
  0
BLOCK
  5
41
330
A
100
AcDbEntity
  8
0
100
AcDbBlockBegin
  2
*MODEL_SPACE
 70
     0
 10
0.0
 20
0.0
 30
0.0
  3
*MODEL_SPACE
  1

  0
ENDBLK
  5
54
330
A
100
AcDbEntity
  8
0
100
AcDbBlockEnd
  0
BLOCK
  5
42
330
B
100
AcDbEntity
 67
     1
  8
0
100
AcDbBlockBegin
  2
*PAPER_SPACE
 70
     0
 10
0.0
 20
0.0
 30
0.0
  3
*PAPER_SPACE
  1

  0
ENDBLK
  5
55
330
B
100
AcDbEntity
 67
     1
  8
0
100
AcDbBlockEnd
  0
ENDSEC
  0
SECTION
  2
ENTITIES
  0
LWPOLYLINE
  5
1740
330
A
100
AcDbEntity
  8
LEVEL001
  6
Continuous
 62
     3
370
    40
100
AcDbPolyline
 90
        5
 70
     0
 43
0.0
 10
62.00000000010899
 20
48.0
 10
1618.0000000001
 20
48.0
 10
1618.0000000001
 20
1140.0
 10
62.00000000010899
 20
1140.0
 10
62.00000000010899
 20
48.0
  0
LWPOLYLINE
  5
1747
330
A
100
AcDbEntity
  8
0
  6
DOT
100
AcDbPolyline
 90
        5
 70
     0
 43
0.0
 10
0.0
 20
0.0
 10
1680.0
 20
0.0
 10
1680.0
 20
1188.0
 10
0.0
 20
1188.0
 10
0.0
 20
0.0
  0
TEXT
  5
174E
330
A
100
AcDbEntity
  8
LEVEL001
 62
     3
100
AcDbText
 10
1273.2800000001
 20
267.0
 30
0.0
 40
12.0
  1
図面名称：
 41
0.8
 72
     1
 11
1299.2000000001
 21
273.0
 31
0.0
100
AcDbText
 73
     2
  0
TEXT
  5
174F
330
A
100
AcDbEntity
  8
LEVEL001
 62
     3
100
AcDbText
 10
1273.1200000001
 20
187.0
 30
0.0
 40
12.0
  1
縮尺：
 41
0.8
 72
     1
 11
1287.2000000001
 21
193.0
 31
0.0
100
AcDbText
 73
     2
  0
TEXT
  5
1750
330
A
100
AcDbEntity
  8
LEVEL001
 62
     3
100
AcDbText
 10
1273.8400000001
 20
108.8861409145001
 30
0.0
 40
12.0
  1
用紙サイズ：
 41
0.8
 72
     1
 11
1305.2000000001
 21
114.8861409145002
 31
0.0
100
AcDbText
 73
     2
  0
TEXT
  5
1751
330
A
100
AcDbEntity
  8
LEVEL001
 62
     3
100
AcDbText
 10
1475.306666666767
 20
189.0666666666997
 30
0.0
 40
11.2
  1
作成日付：
 41
0.8
 72
     1
 11
1499.2000000001
 21
194.6666666666997
 31
0.0
100
AcDbText
 73
     2
  0
TEXT
  5
1752
330
A
100
AcDbEntity
  8
LEVEL001
 62
     3
100
AcDbText
 10
1475.306666666767
 20
162.4
 30
0.0
 40
11.2
  1
変更日付：
 41
0.8
 72
     1
 11
1499.2000000001
 21
168.0
 31
0.0
100
AcDbText
 73
     2
  0
TEXT
  5
1753
330
A
100
AcDbEntity
  8
LEVEL001
 62
     3
100
AcDbText
 10
1473.5200000001
 20
107.0
 30
0.0
 40
12.0
  1
ファイル名：
 41
0.8
 72
     1
 11
1505.2000000001
 21
113.0
 31
0.0
100
AcDbText
 73
     2
  0
LINE
  5
1754
330
A
100
AcDbEntity
  8
LEVEL001
  6
Continuous
 62
     3
100
AcDbLine
 10
1468.0000000001
 20
208.0
 30
0.0
 11
1468.0000000001
 21
48.0
 31
0.0
  0
LINE
  5
1755
330
A
100
AcDbEntity
  8
LEVEL001
  6
Continuous
 62
     3
370
    40
100
AcDbLine
 10
1268.0000000001
 20
1140.0
 30
0.0
 11
1268.0000000001
 21
48.0
 31
0.0
  0
LINE
  5
1756
330
A
100
AcDbEntity
  8
LEVEL001
  6
Continuous
 62
     3
100
AcDbLine
 10
1268.0000000001
 20
288.0
 30
0.0
 11
1618.0000000001
 21
288.0
 31
0.0
  0
LINE
  5
1757
330
A
100
AcDbEntity
  8
LEVEL001
  6
Continuous
 62
     3
100
AcDbLine
 10
1268.0000000001
 20
208.0
 30
0.0
 11
1618.0000000001
 21
208.0
 31
0.0
  0
LINE
  5
1758
330
A
100
AcDbEntity
  8
LEVEL001
  6
Continuous
 62
     3
100
AcDbLine
 10
1268.0000000001
 20
128.0
 30
0.0
 11
1618.0000000001
 21
128.0
 31
0.0
  0
LINE
  5
1759
330
A
100
AcDbEntity
  8
LEVEL001
  6
Continuous
 62
     3
100
AcDbLine
 10
1468.0000000001
 20
181.3333333333003
 30
0.0
 11
1618.0000000001
 21
181.3333333333003
 31
0.0
  0
LINE
  5
175A
330
A
100
AcDbEntity
  8
LEVEL001
  6
Continuous
 62
     3
100
AcDbLine
 10
1468.0000000001
 20
154.6666666666997
 30
0.0
 11
1618.0000000001
 21
154.6666666666997
 31
0.0
  0
LWPOLYLINE
  5
175B
330
A
100
AcDbEntity
  8
LEVEL001
  6
Continuous
 62
     3
100
AcDbPolyline
 90
        6
 70
     0
 43
0.0
 10
1409.8800000003
 20
1087.34
 10
1386.8400000003
 20
1087.34
 10
1386.8400000003
 20
1052.78
 10
1398.3600000003
 20
1052.78
 10
1398.3600000003
 20
1058.54
 10
1409.8800000003
 20
1058.54
  0
ARC
  5
1763
330
A
100
AcDbEntity
  8
LEVEL001
  6
Continuous
 62
     3
100
AcDbCircle
 10
1409.8800000003
 20
1072.94
 30
0.0
 40
14.4
100
AcDbArc
 50
270.0
 51
90.0
  0
LINE
  5
1764
330
A
100
AcDbEntity
  8
LEVEL001
  6
Continuous
 62
     3
100
AcDbLine
 10
1398.3600000003
 20
1070.059999999999
 30
0.0
 11
1409.8800000003
 21
1070.059999999999
 31
0.0
  0
ARC
  5
1765
330
A
100
AcDbEntity
  8
LEVEL001
  6
Continuous
 62
     3
100
AcDbCircle
 10
1409.8800000003
 20
1072.94
 30
0.0
 40
2.879999999999999
100
AcDbArc
 50
270.0
 51
90.0
  0
LINE
  5
1766
330
A
100
AcDbEntity
  8
LEVEL001
  6
Continuous
 62
     3
100
AcDbLine
 10
1409.8800000003
 20
1075.819999999999
 30
0.0
 11
1398.3600000003
 21
1075.819999999999
 31
0.0
  0
LINE
  5
1767
330
A
100
AcDbEntity
  8
LEVEL001
  6
Continuous
 62
     3
100
AcDbLine
 10
1398.3600000003
 20
1075.819999999999
 30
0.0
 11
1398.3600000003
 21
1070.059999999999
 31
0.0
  0
LWPOLYLINE
  5
1768
330
A
100
AcDbEntity
  8
LEVEL001
  6
Continuous
 62
     3
100
AcDbPolyline
 90
       26
 70
     0
 43
0.0
 10
1415.6400000003
 20
1052.78
 10
1438.6800000003
 20
1087.34
 10
1467.4800000003
 20
1087.34
 10
1467.4800000003
 20
1064.299999999999
 10
1484.7600000003
 20
1064.299999999999
 10
1484.7600000003
 20
1075.819999999999
 10
1473.2400000003
 20
1075.819999999999
 10
1473.2400000003
 20
1087.34
 10
1542.3600000003
 20
1087.34
 10
1542.3600000003
 20
1075.819999999999
 10
1519.3200000003
 20
1075.819999999999
 10
1519.3200000003
 20
1072.94
 10
1539.4800000003
 20
1072.94
 10
1539.4800000003
 20
1067.18
 10
1519.3200000003
 20
1067.18
 10
1519.3200000003
 20
1064.299999999999
 10
1542.3600000003
 20
1064.299999999999
 10
1542.3600000003
 20
1052.78
 10
1507.8000000003
 20
1052.78
 10
1507.8000000003
 20
1075.819999999999
 10
1496.2800000003
 20
1075.819999999999
 10
1496.2800000003
 20
1052.78
 10
1455.9600000003
 20
1052.78
 10
1455.9600000003
 20
1087.34
 10
1432.9200000003
 20
1052.78
 10
1415.6400000003
 20
1052.78
  0
LWPOLYLINE
  5
1784
330
A
100
AcDbEntity
  8
LEVEL001
  6
Continuous
 62
     3
100
AcDbPolyline
 90
        4
 70
     0
 43
0.0
 10
1452.1200000003
 20
1074.657341551099
 10
1437.5351056329
 20
1052.78
 10
1452.1200000003
 20
1052.78
 10
1452.1200000003
 20
1074.657341551099
  0
ARC
  5
178A
330
A
100
AcDbEntity
  8
LEVEL001
  6
Continuous
 62
     3
100
AcDbCircle
 10
1559.6400000003
 20
1070.059999999999
 30
0.0
 40
17.28
100
AcDbArc
 50
90.0
 51
270.0
  0
ARC
  5
178B
330
A
100
AcDbEntity
  8
LEVEL001
  6
Continuous
 62
     3
100
AcDbCircle
 10
1559.6400000003
 20
1070.059999999999
 30
0.0
 40
5.759999999999999
100
AcDbArc
 50
90.0
 51
270.0
  0
LWPOLYLINE
  5
178C
330
A
100
AcDbEntity
  8
LEVEL001
  6
Continuous
 62
     3
100
AcDbPolyline
 90
        4
 70
     0
 43
0.0
 10
1559.6400000003
 20
1087.34
 10
1576.9200000003
 20
1087.34
 10
1576.9200000003
 20
1075.819999999999
 10
1559.6400000003
 20
1075.819999999999
  0
LINE
  5
1792
330
A
100
AcDbEntity
  8
LEVEL001
  6
Continuous
 62
     3
100
AcDbLine
 10
1386.8400000003
 20
1087.34
 30
0.0
 11
1386.8400000003
 21
1052.78
 31
0.0
  0
LINE
  5
1793
330
A
100
AcDbEntity
  8
LEVEL001
  6
Continuous
 62
     3
100
AcDbLine
 10
1386.8400000003
 20
1052.78
 30
0.0
 11
1398.3600000003
 21
1052.78
 31
0.0
  0
LINE
  5
1794
330
A
100
AcDbEntity
  8
LEVEL001
  6
Continuous
 62
     3
100
AcDbLine
 10
1398.3600000003
 20
1052.78
 30
0.0
 11
1398.3600000003
 21
1058.54
 31
0.0
  0
LINE
  5
1795
330
A
100
AcDbEntity
  8
LEVEL001
  6
Continuous
 62
     3
100
AcDbLine
 10
1398.3600000003
 20
1058.54
 30
0.0
 11
1409.8800000003
 21
1058.54
 31
0.0
  0
ARC
  5
1796
330
A
100
AcDbEntity
  8
LEVEL001
  6
Continuous
 62
     3
100
AcDbCircle
 10
1409.8800000003
 20
1072.94
 30
0.0
 40
14.4
100
AcDbArc
 50
270.0
 51
90.0
  0
LINE
  5
1797
330
A
100
AcDbEntity
  8
LEVEL001
  6
Continuous
 62
     3
100
AcDbLine
 10
1409.8800000003
 20
1087.34
 30
0.0
 11
1386.8400000003
 21
1087.34
 31
0.0
  0
LINE
  5
1798
330
A
100
AcDbEntity
  8
LEVEL001
  6
Continuous
 62
     3
100
AcDbLine
 10
1398.3600000003
 20
1075.819999999999
 30
0.0
 11
1398.3600000003
 21
1070.059999999999
 31
0.0
  0
LINE
  5
1799
330
A
100
AcDbEntity
  8
LEVEL001
  6
Continuous
 62
     3
100
AcDbLine
 10
1398.3600000003
 20
1070.059999999999
 30
0.0
 11
1409.8800000003
 21
1070.059999999999
 31
0.0
  0
ARC
  5
179A
330
A
100
AcDbEntity
  8
LEVEL001
  6
Continuous
 62
     3
100
AcDbCircle
 10
1409.8800000003
 20
1072.94
 30
0.0
 40
2.879999999999999
100
AcDbArc
 50
270.0
 51
90.0
  0
LINE
  5
179B
330
A
100
AcDbEntity
  8
LEVEL001
  6
Continuous
 62
     3
100
AcDbLine
 10
1409.8800000003
 20
1075.819999999999
 30
0.0
 11
1398.3600000003
 21
1075.819999999999
 31
0.0
  0
LINE
  5
179C
330
A
100
AcDbEntity
  8
LEVEL001
  6
Continuous
 62
     3
100
AcDbLine
 10
1438.6800000003
 20
1087.34
 30
0.0
 11
1415.6400000003
 21
1052.78
 31
0.0
  0
LINE
  5
179D
330
A
100
AcDbEntity
  8
LEVEL001
  6
Continuous
 62
     3
100
AcDbLine
 10
1415.6400000003
 20
1052.78
 30
0.0
 11
1432.9200000003
 21
1052.78
 31
0.0
  0
LINE
  5
179E
330
A
100
AcDbEntity
  8
LEVEL001
  6
Continuous
 62
     3
100
AcDbLine
 10
1432.9200000003
 20
1052.78
 30
0.0
 11
1455.9600000003
 21
1087.34
 31
0.0
  0
LINE
  5
179F
330
A
100
AcDbEntity
  8
LEVEL001
  6
Continuous
 62
     3
100
AcDbLine
 10
1455.9600000003
 20
1087.34
 30
0.0
 11
1438.6800000003
 21
1087.34
 31
0.0
  0
LINE
  5
17A0
330
A
100
AcDbEntity
  8
LEVEL001
  6
Continuous
 62
     3
100
AcDbLine
 10
1452.1200000003
 20
1052.78
 30
0.0
 11
1452.1200000003
 21
1074.657341551099
 31
0.0
  0
LINE
  5
17A1
330
A
100
AcDbEntity
  8
LEVEL001
  6
Continuous
 62
     3
100
AcDbLine
 10
1452.1200000003
 20
1074.657341551099
 30
0.0
 11
1437.5351056329
 21
1052.78
 31
0.0
  0
LINE
  5
17A2
330
A
100
AcDbEntity
  8
LEVEL001
  6
Continuous
 62
     3
100
AcDbLine
 10
1437.5351056329
 20
1052.78
 30
0.0
 11
1452.1200000003
 21
1052.78
 31
0.0
  0
LINE
  5
17A3
330
A
100
AcDbEntity
  8
LEVEL001
  6
Continuous
 62
     3
100
AcDbLine
 10
1455.9600000003
 20
1052.78
 30
0.0
 11
1496.2800000003
 21
1052.78
 31
0.0
  0
LINE
  5
17A4
330
A
100
AcDbEntity
  8
LEVEL001
  6
Continuous
 62
     3
100
AcDbLine
 10
1496.2800000003
 20
1052.78
 30
0.0
 11
1496.2800000003
 21
1075.819999999999
 31
0.0
  0
LINE
  5
17A5
330
A
100
AcDbEntity
  8
LEVEL001
  6
Continuous
 62
     3
100
AcDbLine
 10
1496.2800000003
 20
1075.819999999999
 30
0.0
 11
1507.8000000003
 21
1075.819999999999
 31
0.0
  0
LINE
  5
17A6
330
A
100
AcDbEntity
  8
LEVEL001
  6
Continuous
 62
     3
100
AcDbLine
 10
1507.8000000003
 20
1075.819999999999
 30
0.0
 11
1507.8000000003
 21
1052.78
 31
0.0
  0
LINE
  5
17A7
330
A
100
AcDbEntity
  8
LEVEL001
  6
Continuous
 62
     3
100
AcDbLine
 10
1507.8000000003
 20
1052.78
 30
0.0
 11
1542.3600000003
 21
1052.78
 31
0.0
  0
LINE
  5
17A8
330
A
100
AcDbEntity
  8
LEVEL001
  6
Continuous
 62
     3
100
AcDbLine
 10
1542.3600000003
 20
1052.78
 30
0.0
 11
1542.3600000003
 21
1064.299999999999
 31
0.0
  0
LINE
  5
17A9
330
A
100
AcDbEntity
  8
LEVEL001
  6
Continuous
 62
     3
100
AcDbLine
 10
1542.3600000003
 20
1064.299999999999
 30
0.0
 11
1519.3200000003
 21
1064.299999999999
 31
0.0
  0
LINE
  5
17AA
330
A
100
AcDbEntity
  8
LEVEL001
  6
Continuous
 62
     3
100
AcDbLine
 10
1519.3200000003
 20
1064.299999999999
 30
0.0
 11
1519.3200000003
 21
1067.18
 31
0.0
  0
LINE
  5
17AB
330
A
100
AcDbEntity
  8
LEVEL001
  6
Continuous
 62
     3
100
AcDbLine
 10
1519.3200000003
 20
1067.18
 30
0.0
 11
1539.4800000003
 21
1067.18
 31
0.0
  0
LINE
  5
17AC
330
A
100
AcDbEntity
  8
LEVEL001
  6
Continuous
 62
     3
100
AcDbLine
 10
1539.4800000003
 20
1067.18
 30
0.0
 11
1539.4800000003
 21
1072.94
 31
0.0
  0
LINE
  5
17AD
330
A
100
AcDbEntity
  8
LEVEL001
  6
Continuous
 62
     3
100
AcDbLine
 10
1539.4800000003
 20
1072.94
 30
0.0
 11
1519.3200000003
 21
1072.94
 31
0.0
  0
LINE
  5
17AE
330
A
100
AcDbEntity
  8
LEVEL001
  6
Continuous
 62
     3
100
AcDbLine
 10
1519.3200000003
 20
1072.94
 30
0.0
 11
1519.3200000003
 21
1075.819999999999
 31
0.0
  0
LINE
  5
17AF
330
A
100
AcDbEntity
  8
LEVEL001
  6
Continuous
 62
     3
100
AcDbLine
 10
1519.3200000003
 20
1075.819999999999
 30
0.0
 11
1542.3600000003
 21
1075.819999999999
 31
0.0
  0
LINE
  5
17B0
330
A
100
AcDbEntity
  8
LEVEL001
  6
Continuous
 62
     3
100
AcDbLine
 10
1542.3600000003
 20
1075.819999999999
 30
0.0
 11
1542.3600000003
 21
1087.34
 31
0.0
  0
LINE
  5
17B1
330
A
100
AcDbEntity
  8
LEVEL001
  6
Continuous
 62
     3
100
AcDbLine
 10
1542.3600000003
 20
1087.34
 30
0.0
 11
1473.2400000003
 21
1087.34
 31
0.0
  0
LINE
  5
17B2
330
A
100
AcDbEntity
  8
LEVEL001
  6
Continuous
 62
     3
100
AcDbLine
 10
1473.2400000003
 20
1087.34
 30
0.0
 11
1473.2400000003
 21
1075.819999999999
 31
0.0
  0
LINE
  5
17B3
330
A
100
AcDbEntity
  8
LEVEL001
  6
Continuous
 62
     3
100
AcDbLine
 10
1473.2400000003
 20
1075.819999999999
 30
0.0
 11
1484.7600000003
 21
1075.819999999999
 31
0.0
  0
LINE
  5
17B4
330
A
100
AcDbEntity
  8
LEVEL001
  6
Continuous
 62
     3
100
AcDbLine
 10
1484.7600000003
 20
1075.819999999999
 30
0.0
 11
1484.7600000003
 21
1064.299999999999
 31
0.0
  0
LINE
  5
17B5
330
A
100
AcDbEntity
  8
LEVEL001
  6
Continuous
 62
     3
100
AcDbLine
 10
1484.7600000003
 20
1064.299999999999
 30
0.0
 11
1467.4800000003
 21
1064.299999999999
 31
0.0
  0
LINE
  5
17B6
330
A
100
AcDbEntity
  8
LEVEL001
  6
Continuous
 62
     3
100
AcDbLine
 10
1467.4800000003
 20
1064.299999999999
 30
0.0
 11
1467.4800000003
 21
1087.34
 31
0.0
  0
LINE
  5
17B7
330
A
100
AcDbEntity
  8
LEVEL001
  6
Continuous
 62
     3
100
AcDbLine
 10
1467.4800000003
 20
1087.34
 30
0.0
 11
1455.9600000003
 21
1087.34
 31
0.0
  0
LINE
  5
17B8
330
A
100
AcDbEntity
  8
LEVEL001
  6
Continuous
 62
     3
100
AcDbLine
 10
1455.9600000003
 20
1087.34
 30
0.0
 11
1455.9600000003
 21
1052.78
 31
0.0
  0
LINE
  5
17B9
330
A
100
AcDbEntity
  8
LEVEL001
  6
Continuous
 62
     3
100
AcDbLine
 10
1559.6400000003
 20
1052.78
 30
0.0
 11
1576.9200000003
 21
1052.78
 31
0.0
  0
LINE
  5
17BA
330
A
100
AcDbEntity
  8
LEVEL001
  6
Continuous
 62
     3
100
AcDbLine
 10
1576.9200000003
 20
1052.78
 30
0.0
 11
1576.9200000003
 21
1064.299999999999
 31
0.0
  0
LINE
  5
17BB
330
A
100
AcDbEntity
  8
LEVEL001
  6
Continuous
 62
     3
100
AcDbLine
 10
1576.9200000003
 20
1064.299999999999
 30
0.0
 11
1559.6400000003
 21
1064.299999999999
 31
0.0
  0
ARC
  5
17BC
330
A
100
AcDbEntity
  8
LEVEL001
  6
Continuous
 62
     3
100
AcDbCircle
 10
1559.6400000003
 20
1070.059999999999
 30
0.0
 40
5.759999999999999
100
AcDbArc
 50
90.0
 51
270.0
  0
LINE
  5
17BD
330
A
100
AcDbEntity
  8
LEVEL001
  6
Continuous
 62
     3
100
AcDbLine
 10
1559.6400000003
 20
1075.819999999999
 30
0.0
 11
1576.9200000003
 21
1075.819999999999
 31
0.0
  0
LINE
  5
17BE
330
A
100
AcDbEntity
  8
LEVEL001
  6
Continuous
 62
     3
100
AcDbLine
 10
1576.9200000003
 20
1075.819999999999
 30
0.0
 11
1576.9200000003
 21
1087.34
 31
0.0
  0
LINE
  5
17BF
330
A
100
AcDbEntity
  8
LEVEL001
  6
Continuous
 62
     3
100
AcDbLine
 10
1576.9200000003
 20
1087.34
 30
0.0
 11
1559.6400000003
 21
1087.34
 31
0.0
  0
ARC
  5
17C0
330
A
100
AcDbEntity
  8
LEVEL001
  6
Continuous
 62
     3
100
AcDbCircle
 10
1559.6400000003
 20
1070.059999999999
 30
0.0
 40
17.28
100
AcDbArc
 50
90.0
 51
270.0
  0
TEXT
  5
17C1
330
A
100
AcDbEntity
  8
LEVEL001
 62
     3
100
AcDbText
 10
1386.8400000003
 20
1093.1
 30
0.0
 40
12.0
  1
ケージーパルテック株式会社
 41
0.8
100
AcDbText
  0
LWPOLYLINE
  5
17C2
330
A
100
AcDbEntity
  8
LEVEL001
  6
Continuous
 62
     3
100
AcDbPolyline
 90
        4
 70
     0
 43
0.0
 10
1375.3200000003
 20
1060.46
 10
1360.9200000003
 20
1083.5
 10
1375.3200000003
 20
1083.5
 10
1375.3200000003
 20
1060.46
  0
LINE
  5
17C8
330
A
100
AcDbEntity
  8
LEVEL001
  6
Continuous
 62
     3
100
AcDbLine
 10
1360.9200000003
 20
1083.5
 30
0.0
 11
1375.3200000003
 21
1060.46
 31
0.0
  0
LINE
  5
17C9
330
A
100
AcDbEntity
  8
LEVEL001
  6
Continuous
 62
     3
100
AcDbLine
 10
1375.3200000003
 20
1060.46
 30
0.0
 11
1375.3200000003
 21
1083.5
 31
0.0
  0
LINE
  5
17CA
330
A
100
AcDbEntity
  8
LEVEL001
  6
Continuous
 62
     3
100
AcDbLine
 10
1375.3200000003
 20
1083.5
 30
0.0
 11
1360.9200000003
 21
1083.5
 31
0.0
  0
LWPOLYLINE
  5
17CB
330
A
100
AcDbEntity
  8
LEVEL001
  6
Continuous
 62
     3
100
AcDbPolyline
 90
        3
 70
     0
 43
0.0
 10
1329.5600000003
 20
1114.219999999999
 10
1309.0800000003
 20
1083.5
 10
1329.5600000003
 20
1052.78
  0
LWPOLYLINE
  5
17D0
330
A
100
AcDbEntity
  8
LEVEL001
  6
Continuous
 62
     3
100
AcDbPolyline
 90
        3
 70
     0
 43
0.0
 10
1346.8400000003
 20
1052.78
 10
1326.3600000003
 20
1083.5
 10
1346.8400000003
 20
1114.219999999999
  0
LWPOLYLINE
  5
17D5
330
A
100
AcDbEntity
  8
LEVEL001
  6
Continuous
 62
     3
100
AcDbPolyline
 90
        3
 70
     0
 43
0.0
 10
1355.4800000003
 20
1114.219999999999
 10
1335.0000000003
 20
1083.5
 10
1355.4800000003
 20
1052.78
  0
LWPOLYLINE
  5
17DA
330
A
100
AcDbEntity
  8
LEVEL001
  6
Continuous
 62
     3
100
AcDbPolyline
 90
        3
 70
     0
 43
0.0
 10
1372.7600000003
 20
1052.78
 10
1352.2800000003
 20
1083.5
 10
1372.7600000003
 20
1114.219999999999
  0
LWPOLYLINE
  5
17DF
330
A
100
AcDbEntity
  8
LEVEL001
  6
Continuous
 62
     3
100
AcDbPolyline
 90
        3
 70
     0
 43
0.0
 10
1329.5600000003
 20
1052.78
 10
1309.0800000003
 20
1083.5
 10
1329.5600000003
 20
1114.219999999999
  0
LINE
  5
17E4
330
A
100
AcDbEntity
  8
LEVEL001
  6
Continuous
 62
     3
100
AcDbLine
 10
1329.5600000003
 20
1114.219999999999
 30
0.0
 11
1346.8400000003
 21
1114.219999999999
 31
0.0
  0
LWPOLYLINE
  5
17E5
330
A
100
AcDbEntity
  8
LEVEL001
  6
Continuous
 62
     3
100
AcDbPolyline
 90
        3
 70
     0
 43
0.0
 10
1346.8400000003
 20
1114.219999999999
 10
1326.3600000003
 20
1083.5
 10
1346.8400000003
 20
1052.78
  0
LINE
  5
17EA
330
A
100
AcDbEntity
  8
LEVEL001
  6
Continuous
 62
     3
100
AcDbLine
 10
1346.8400000003
 20
1052.78
 30
0.0
 11
1329.5600000003
 21
1052.78
 31
0.0
  0
LWPOLYLINE
  5
17EB
330
A
100
AcDbEntity
  8
LEVEL001
  6
Continuous
 62
     3
100
AcDbPolyline
 90
        3
 70
     0
 43
0.0
 10
1355.4800000003
 20
1052.78
 10
1335.0000000003
 20
1083.5
 10
1355.4800000003
 20
1114.219999999999
  0
LINE
  5
17F0
330
A
100
AcDbEntity
  8
LEVEL001
  6
Continuous
 62
     3
100
AcDbLine
 10
1355.4800000003
 20
1114.219999999999
 30
0.0
 11
1372.7600000003
 21
1114.219999999999
 31
0.0
  0
LWPOLYLINE
  5
17F1
330
A
100
AcDbEntity
  8
LEVEL001
  6
Continuous
 62
     3
100
AcDbPolyline
 90
        3
 70
     0
 43
0.0
 10
1372.7600000003
 20
1114.219999999999
 10
1352.2800000003
 20
1083.5
 10
1372.7600000003
 20
1052.78
  0
LINE
  5
17F6
330
A
100
AcDbEntity
  8
LEVEL001
  6
Continuous
 62
     3
100
AcDbLine
 10
1372.7600000003
 20
1052.78
 30
0.0
 11
1355.4800000003
 21
1052.78
 31
0.0
  0
LINE
  5
17F7
330
A
100
AcDbEntity
  8
LEVEL001
  6
Continuous
 62
     3
370
    40
100
AcDbLine
 10
62.00000000010899
 20
1100.0
 30
0.0
 11
1268.0000000001
 21
1100.0
 31
0.0
  0
TEXT
  5
17F8
330
A
100
AcDbEntity
  8
LEVEL001
 62
     3
100
AcDbText
 10
1273.3600000001
 20
1006.0
 30
0.0
 40
12.0
  1
商品名：
 41
0.8
 72
     1
 11
1293.2000000001
 21
1012.0
 31
0.0
100
AcDbText
 73
     2
  0
TEXT
  5
17F9
330
A
100
AcDbEntity
  8
LEVEL001
 62
     3
100
AcDbText
 10
1273.1200000001
 20
926.0
 30
0.0
 40
12.0
  1
形式：
 41
0.8
 72
     1
 11
1287.2000000001
 21
932.0
 31
0.0
100
AcDbText
 73
     2
  0
TEXT
  5
17FA
330
A
100
AcDbEntity
  8
LEVEL001
 62
     3
100
AcDbText
 10
1273.1200000001
 20
846.0
 30
0.0
 40
12.0
  1
仕様：
 41
0.8
 72
     1
 11
1287.2000000001
 21
852.0
 31
0.0
100
AcDbText
 73
     2
  0
LINE
  5
17FB
330
A
100
AcDbEntity
  8
LEVEL001
  6
Continuous
 62
     3
100
AcDbLine
 10
1268.0000000001
 20
1027.0
 30
0.0
 11
1618.0000000001
 21
1027.0
 31
0.0
  0
LINE
  5
17FC
330
A
100
AcDbEntity
  8
LEVEL001
  6
Continuous
 62
     3
100
AcDbLine
 10
1268.0000000001
 20
947.0
 30
0.0
 11
1618.0000000001
 21
947.0
 31
0.0
  0
LINE
  5
17FD
330
A
100
AcDbEntity
  8
LEVEL001
  6
Continuous
 62
     3
100
AcDbLine
 10
1268.0000000001
 20
867.0
 30
0.0
 11
1618.0000000001
 21
867.0
 31
0.0
  0
TEXT
  5
1800
330
A
100
AcDbEntity
  8
LEVEL001
 62
     8
100
AcDbText
 10
1381.0000000001
 20
240.5
 30
0.0
 40
15.0
  1
平面図･断面図･姿図
 41
0.8
 72
     1
 11
1443.0000000001
 21
248.0
 31
0.0
100
AcDbText
 73
     2
  0
TEXT
  5
1801
330
A
100
AcDbEntity
  8
LEVEL001
 62
     8
100
AcDbText
 10
1333.6000000001
 20
160.5
 30
0.0
 40
15.0
  1
Ｓ＝１：４　
 41
0.8
 72
     1
 11
1368.0000000001
 21
168.0
 31
0.0
100
AcDbText
 73
     2
  0
TEXT
  5
1802
330
A
100
AcDbEntity
  8
LEVEL001
 62
     8
100
AcDbText
 10
1355.6000000001
 20
80.5
 30
0.0
 40
15.0
  1
Ａ３
 41
0.8
 72
     1
 11
1368.0000000001
 21
88.0
 31
0.0
100
AcDbText
 73
     2
  0
TEXT
  5
1804
330
A
100
AcDbEntity
  8
LEVEL001
 62
     8
100
AcDbText
 10
1326.0000000001
 20
987.0
 30
0.0
 40
18.0
  1
パルライン丸型ハンドレール
 41
0.8
100
AcDbText
  0
TEXT
  5
1805
330
A
100
AcDbEntity
  8
LEVEL001
 62
     8
100
AcDbText
 10
1326.0000000001
 20
963.0
 30
0.0
 40
18.0
  1
　　(３４%%C用)
 41
0.8
100
AcDbText
  0
LINE
  5
1811
330
A
100
AcDbEntity
  8
LEVEL001
  6
Continuous
 62
     3
370
    40
100
AcDbLine
 10
665.00000000011
 20
1140.0
 30
0.0
 11
665.00000000011
 21
48.0
 31
0.0
  0
TEXT
  5
1818
330
A
100
AcDbEntity
  8
LEVEL001
 62
     8
100
AcDbText
 10
1323.1600000001
 20
900.0
 30
0.0
 40
14.0
  1
壁付ブラケット－Ｔ５５Ｆタイプ(縦型)
 41
0.8
 72
     1
 11
1443.0000000001
 21
907.0
 31
0.0
100
AcDbText
 73
     2
  0
TEXT
  5
1819
330
A
100
AcDbEntity
  8
LEVEL001
 62
     8
100
AcDbText
 10
93.200000000109
 20
1114.0
 30
0.0
 40
12.0
  1
壁付ブラケット(縦型)－Ｔ５５Ｆ(笠木%%c３４仕様)
 41
0.8
 11
93.200000000109
 21
1120.0
 31
0.0
100
AcDbText
 73
     2
  0
LINE
  5
181B
330
A
100
AcDbEntity
  8
LEVEL001
  6
Continuous
 62
     1
100
AcDbLine
 10
361.80797458242
 20
646.5802737308004
 30
0.0
 11
361.80797458242
 21
596.5802737308004
 31
0.0
  0
ARC
  5
181C
330
A
100
AcDbEntity
  8
LEVEL001
  6
Continuous
 62
     1
100
AcDbCircle
 10
343.30797458242
 20
646.5802737308004
 30
0.0
 40
18.5
100
AcDbArc
 50
0.0
 51
180.0
  0
LINE
  5
181D
330
A
100
AcDbEntity
  8
LEVEL001
  6
Continuous
 62
     1
100
AcDbLine
 10
324.80797458242
 20
596.5802737308004
 30
0.0
 11
324.80797458242
 21
646.5802737308004
 31
0.0
  0
ARC
  5
181E
330
A
100
AcDbEntity
  8
LEVEL001
  6
Continuous
 62
     1
100
AcDbCircle
 10
361.30797458613
 20
596.5802737308004
 30
0.0
 40
0.5
100
AcDbArc
 50
269.99999957462
 51
0.0
  0
LINE
  5
181F
330
A
100
AcDbEntity
  8
LEVEL001
  6
Continuous
 62
     1
100
AcDbLine
 10
361.30797458242
 20
596.0802737308004
 30
0.0
 11
325.30797458242
 21
596.0802737308004
 31
0.0
  0
ARC
  5
1820
330
A
100
AcDbEntity
  8
LEVEL001
  6
Continuous
 62
     1
100
AcDbCircle
 10
325.30797458242
 20
596.5802737306002
 30
0.0
 40
0.5
100
AcDbArc
 50
179.9999999710267
 51
270.0
  0
LINE
  5
1821
330
A
100
AcDbEntity
  8
LEVEL001
  6
Continuous
 62
     1
100
AcDbLine
 10
360.30797458242
 20
465.0802737308004
 30
0.0
 11
360.30797458242
 21
596.0802737308004
 31
0.0
  0
LINE
  5
1822
330
A
100
AcDbEntity
  8
LEVEL001
  6
Continuous
 62
     1
100
AcDbLine
 10
326.30797458242
 20
465.0802737308004
 30
0.0
 11
326.30797458242
 21
596.0802737308004
 31
0.0
  0
LINE
  5
1823
330
A
100
AcDbEntity
  8
LEVEL001
  6
DASHDOT
 62
     6
370
    15
100
AcDbLine
 10
343.30797458246
 20
394.6678755169996
 30
0.0
 11
343.30797458246
 21
701.4982083048998
 31
0.0
  0
LWPOLYLINE
  5
1824
330
A
100
AcDbEntity
  8
LEVEL001
  6
Continuous
 62
     3
370
    30
100
AcDbPolyline
 90
        3
 70
     0
 43
0.0
 10
218.30797458246
 20
194.9879094349999
 10
218.30797458246
 20
78.48672740189977
 10
243.30797458246
 20
78.48672740189977
  0
LINE
  5
1829
330
A
100
AcDbEntity
  8
LEVEL001
  6
DASHDOT
 62
     6
370
    15
100
AcDbLine
 10
497.91694574734
 20
163.2851885984
 30
0.0
 11
454.69900341749
 21
163.2851885984
 31
0.0
  0
LINE
  5
182A
330
A
100
AcDbEntity
  8
LEVEL001
  6
DASHDOT
 62
     6
370
    15
100
AcDbLine
 10
343.30797458246
 20
394.6678755169996
 30
0.0
 11
343.30797458246
 21
234.8851885984004
 31
0.0
  0
LINE
  5
182B
330
A
100
AcDbEntity
  8
LEVEL001
  6
DASHDOT
 62
     6
370
    15
100
AcDbLine
 10
636.57811523649
 20
234.8851885984004
 30
0.0
 11
343.30797458246
 21
234.8851885984004
 31
0.0
  0
ARC
  5
182C
330
A
100
AcDbEntity
  8
LEVEL001
  6
Continuous
 62
     3
100
AcDbCircle
 10
363.80797458277
 20
255.3851885984004
 30
0.0
 40
2.0
100
AcDbArc
 50
180.0
 51
269.99999999131
  0
LINE
  5
182D
330
A
100
AcDbEntity
  8
LEVEL001
  6
Continuous
 62
     3
100
AcDbLine
 10
361.80797458246
 20
284.3851885984004
 30
0.0
 11
361.80797458246
 21
255.3851885984004
 31
0.0
  0
ARC
  5
182E
330
A
100
AcDbEntity
  8
LEVEL001
  6
Continuous
 62
     3
100
AcDbCircle
 10
361.30797458246
 20
284.3851886000002
 30
0.0
 40
0.5
100
AcDbArc
 50
0.0
 51
90.0
  0
LINE
  5
182F
330
A
100
AcDbEntity
  8
LEVEL001
  6
Continuous
 62
     3
100
AcDbLine
 10
325.30797458246
 20
284.8851885984004
 30
0.0
 11
361.30797458246
 21
284.8851885984004
 31
0.0
  0
LINE
  5
1830
330
A
100
AcDbEntity
  8
LEVEL001
  6
Continuous
 62
     3
100
AcDbLine
 10
363.80797458246
 20
253.3851885984004
 30
0.0
 11
393.30797458246
 21
253.3851885984004
 31
0.0
  0
ARC
  5
1831
330
A
100
AcDbEntity
  8
LEVEL001
  6
Continuous
 62
     3
100
AcDbCircle
 10
393.30797458246
 20
252.8851885924996
 30
0.0
 40
0.5
100
AcDbArc
 50
0.0000006751398536
 51
90.0
  0
LINE
  5
1832
330
A
100
AcDbEntity
  8
LEVEL001
  6
Continuous
 62
     3
100
AcDbLine
 10
393.80797458246
 20
252.8851885984004
 30
0.0
 11
393.80797458246
 21
216.8851885984004
 31
0.0
  0
ARC
  5
1833
330
A
100
AcDbEntity
  8
LEVEL001
  6
Continuous
 62
     3
100
AcDbCircle
 10
363.80797458246
 20
255.3851885983004
 30
0.0
 40
39.0
100
AcDbArc
 50
179.9999999999218
 51
270.0
  0
ARC
  5
1834
330
A
100
AcDbEntity
  8
LEVEL001
  6
Continuous
 62
     3
100
AcDbCircle
 10
393.30797458045
 20
216.8851885984004
 30
0.0
 40
0.5
100
AcDbArc
 50
270.00000023095
 51
0.0
  0
LINE
  5
1835
330
A
100
AcDbEntity
  8
LEVEL001
  6
Continuous
 62
     3
100
AcDbLine
 10
393.30797458246
 20
216.3851885984004
 30
0.0
 11
363.80797458246
 21
216.3851885984004
 31
0.0
  0
ARC
  5
1836
330
A
100
AcDbEntity
  8
LEVEL001
  6
Continuous
 62
     3
100
AcDbCircle
 10
325.3079745879
 20
284.3851885984004
 30
0.0
 40
0.5
100
AcDbArc
 50
90.00000062300397
 51
180.0
  0
LINE
  5
1837
330
A
100
AcDbEntity
  8
LEVEL001
  6
Continuous
 62
     3
100
AcDbLine
 10
324.80797458246
 20
255.3851885984004
 30
0.0
 11
324.80797458246
 21
284.3851885984004
 31
0.0
  0
LINE
  5
1838
330
A
100
AcDbEntity
  8
LEVEL001
  6
Continuous
 62
     1
100
AcDbLine
 10
326.30797458242
 20
451.8851885984995
 30
0.0
 11
326.30797458242
 21
284.8851885984004
 31
0.0
  0
LINE
  5
1839
330
A
100
AcDbEntity
  8
LEVEL001
  6
Continuous
 62
     1
100
AcDbLine
 10
360.30797458242
 20
451.8851885984995
 30
0.0
 11
360.30797458242
 21
284.8851885984004
 31
0.0
  0
LINE
  5
183A
330
A
100
AcDbEntity
  8
LEVEL001
  6
DASHDOT
 62
     6
370
    15
100
AcDbLine
 10
476.30797458242
 20
131.9441733088997
 30
0.0
 11
476.30797458242
 21
266.9398112911003
 31
0.0
  0
LINE
  5
183B
330
A
100
AcDbEntity
  8
LEVEL001
  6
Continuous
 62
     1
100
AcDbLine
 10
393.80797458246
 20
251.8851885984996
 30
0.0
 11
557.30797458242
 21
251.8851885984996
 31
0.0
  0
LINE
  5
183C
330
A
100
AcDbEntity
  8
LEVEL001
  6
Continuous
 62
     1
100
AcDbLine
 10
393.80797458246
 20
217.8851885984995
 30
0.0
 11
557.30797458242
 21
217.8851885984995
 31
0.0
  0
LINE
  5
183D
330
A
100
AcDbEntity
  8
LEVEL001
  6
Continuous
 62
     3
370
    30
100
AcDbLine
 10
218.30797458246
 20
682.1164782656997
 30
0.0
 11
218.30797458246
 21
188.8238903220999
 31
0.0
  0
ARC
  5
183E
330
A
100
AcDbEntity
  8
LEVEL001
  6
Continuous
 62
     1
100
AcDbCircle
 10
351.80797458247
 20
469.8052737307998
 30
0.0
 40
9.7249999999622
100
AcDbArc
 50
209.0689101611727
 51
330.9310898386478
  0
ARC
  5
183F
330
A
100
AcDbEntity
  8
LEVEL001
  6
Continuous
 62
     1
100
AcDbCircle
 10
351.80797458247
 20
456.6101885984998
 30
0.0
 40
9.7249999999622
100
AcDbArc
 50
209.0689101611727
 51
330.9310898386478
  0
ARC
  5
1840
330
A
100
AcDbEntity
  8
LEVEL001
  6
Continuous
 62
     1
100
AcDbCircle
 10
334.80797458243
 20
460.3552737308
 30
0.0
 40
9.725000000037899
100
AcDbArc
 50
29.06891016105378
 51
150.9310898388576
  0
ARC
  5
1841
330
A
100
AcDbEntity
  8
LEVEL001
  6
Continuous
 62
     1
100
AcDbCircle
 10
334.80797458243
 20
447.1601885984
 30
0.0
 40
9.725000000037899
100
AcDbArc
 50
29.06891016105378
 51
150.9310898388576
  0
LINE
  5
1842
330
A
100
AcDbEntity
  8
LEVEL001
  6
Continuous
 62
     5
100
AcDbLine
 10
463.55797458242
 20
200.8851885984004
 30
0.0
 11
489.05797458242
 21
200.8851885984004
 31
0.0
  0
LINE
  5
1843
330
A
100
AcDbEntity
  8
LEVEL001
  6
Continuous
 62
     5
100
AcDbLine
 10
463.55797458242
 20
176.8851885984004
 30
0.0
 11
489.05797458242
 21
176.8851885984004
 31
0.0
  0
LWPOLYLINE
  5
1844
330
A
100
AcDbEntity
  8
LEVEL001
  6
Continuous
 62
     5
100
AcDbPolyline
 90
        3
 70
     0
 43
0.0
 10
492.30797458242
 20
140.8851885984004
 10
492.30797458242
 20
189.8851885984004
 10
489.05797458242
 20
189.8851885984004
  0
LINE
  5
1849
330
A
100
AcDbEntity
  8
LEVEL001
  6
Continuous
 62
     5
100
AcDbLine
 10
491.30797458242
 20
150.3851885984004
 30
0.0
 11
491.30797458242
 21
185.6851885983997
 31
0.0
  0
LWPOLYLINE
  5
184A
330
A
100
AcDbEntity
  8
LEVEL001
  6
Continuous
 62
     5
100
AcDbPolyline
 90
        3
 70
     0
 43
0.0
 10
463.55797458242
 20
189.8851885984004
 10
460.3079745824199
 20
189.8851885984004
 10
460.3079745824199
 20
140.8851885984004
  0
LINE
  5
184F
330
A
100
AcDbEntity
  8
LEVEL001
  6
Continuous
 62
     5
100
AcDbLine
 10
461.30797458242
 20
185.6851885983997
 30
0.0
 11
461.30797458242
 21
150.3851885984004
 31
0.0
  0
LINE
  5
1850
330
A
100
AcDbEntity
  8
LEVEL001
  6
Continuous
 62
     5
100
AcDbLine
 10
461.30797458242
 20
185.6851885983997
 30
0.0
 11
463.55797458242
 21
185.6851885983997
 31
0.0
  0
ARC
  5
1851
330
A
100
AcDbEntity
  8
LEVEL001
  6
Continuous
 62
     5
100
AcDbCircle
 10
446.3677812128699
 20
184.3470473201996
 30
0.0
 40
15.0
100
AcDbArc
 50
5.118127161728977
 51
21.6668683437645
  0
LINE
  5
1852
330
A
100
AcDbEntity
  8
LEVEL001
  6
Continuous
 62
     5
100
AcDbLine
 10
489.05797458242
 20
185.6851885983997
 30
0.0
 11
491.30797458242
 21
185.6851885983997
 31
0.0
  0
ARC
  5
1853
330
A
100
AcDbEntity
  8
LEVEL001
  6
Continuous
 62
     5
100
AcDbCircle
 10
506.2481679519
 20
184.3470473194002
 30
0.0
 40
15.0
100
AcDbArc
 50
158.3331316532358
 51
174.8818728351319
  0
LINE
  5
1854
330
A
100
AcDbEntity
  8
LEVEL001
  6
Continuous
 62
     5
100
AcDbLine
 10
463.55797458242
 20
217.8851885984004
 30
0.0
 11
463.55797458242
 21
176.8851885984004
 31
0.0
  0
LWPOLYLINE
  5
1855
330
A
100
AcDbEntity
  8
LEVEL001
  6
Continuous
 62
     5
100
AcDbPolyline
 90
        4
 70
     0
 43
0.0
 10
489.05797458242
 20
176.8851885984004
 10
489.05797458242
 20
173.8851885984004
 10
463.55797458242
 20
173.8851885984004
 10
463.55797458242
 20
176.8851885984004
  0
LINE
  5
185B
330
A
100
AcDbEntity
  8
LEVEL001
  6
Continuous
 62
     5
100
AcDbLine
 10
489.05797458242
 20
176.8851885984004
 30
0.0
 11
489.05797458242
 21
217.8851885984004
 31
0.0
  0
LINE
  5
185C
330
A
100
AcDbEntity
  8
LEVEL001
  6
Continuous
 62
     5
100
AcDbLine
 10
463.55797458242
 20
218.3851885984004
 30
0.0
 11
489.05797458242
 21
218.3851885984004
 31
0.0
  0
LINE
  5
185D
330
A
100
AcDbEntity
  8
LEVEL001
  6
Continuous
 62
     5
100
AcDbLine
 10
463.30797458242
 20
148.3851885984004
 30
0.0
 11
489.3079745824199
 21
148.3851885984004
 31
0.0
  0
ARC
  5
185E
330
A
100
AcDbEntity
  8
LEVEL001
  6
Continuous
 62
     5
100
AcDbCircle
 10
489.3079745824199
 20
150.3851885983003
 30
0.0
 40
2.0
100
AcDbArc
 50
270.0
 51
0.0
  0
ARC
  5
185F
330
A
100
AcDbEntity
  8
LEVEL001
  6
Continuous
 62
     5
100
AcDbCircle
 10
489.8079745824199
 20
140.8851885993999
 30
0.0
 40
2.5
100
AcDbArc
 50
270.0
 51
0.0
  0
LINE
  5
1860
330
A
100
AcDbEntity
  8
LEVEL001
  6
Continuous
 62
     5
100
AcDbLine
 10
462.80797458242
 20
138.3851885984004
 30
0.0
 11
489.8079745824199
 21
138.3851885984004
 31
0.0
  0
ARC
  5
1861
330
A
100
AcDbEntity
  8
LEVEL001
  6
Continuous
 62
     5
100
AcDbCircle
 10
463.3079745827699
 20
150.3851885984004
 30
0.0
 40
2.0
100
AcDbArc
 50
180.0
 51
269.99999999006
  0
ARC
  5
1862
330
A
100
AcDbEntity
  8
LEVEL001
  6
Continuous
 62
     5
100
AcDbCircle
 10
462.80797458239
 20
140.8851885984004
 30
0.0
 40
2.5
100
AcDbArc
 50
180.0
 51
270.0000000006
  0
LINE
  5
1863
330
A
100
AcDbEntity
  8
LEVEL001
  6
Continuous
 62
     3
370
    30
100
AcDbLine
 10
243.30797458246
 20
809.1160641401001
 30
0.0
 11
218.30797458246
 21
809.1160641401001
 31
0.0
  0
LINE
  5
1864
330
A
100
AcDbEntity
  8
LEVEL001
  6
Continuous
 62
     3
370
    30
100
AcDbLine
 10
218.30797458246
 20
840.3689282973001
 30
0.0
 11
218.30797458246
 21
809.1160641401001
 31
0.0
  0
LINE
  5
1865
330
A
100
AcDbEntity
  8
LEVEL001
  6
Continuous
 62
     3
370
    30
100
AcDbLine
 10
243.30797458246
 20
819.1160641401001
 30
0.0
 11
243.30797458246
 21
809.1160641401001
 31
0.0
  0
LINE
  5
1866
330
A
100
AcDbEntity
  8
LEVEL001
  6
Continuous
 62
     3
370
    30
100
AcDbLine
 10
243.30797458246
 20
819.1160641401001
 30
0.0
 11
474.42689065927
 21
819.1160641401001
 31
0.0
  0
ARC
  5
1867
330
A
100
AcDbEntity
  8
LEVEL001
  6
Continuous
 62
     1
100
AcDbCircle
 10
331.54999856453
 20
959.3961714220004
 30
0.0
 40
0.3
100
AcDbArc
 50
157.7930700083745
 51
270.00000031061
  0
LINE
  5
1868
330
A
100
AcDbEntity
  8
LEVEL001
  6
Continuous
 62
     1
100
AcDbLine
 10
336.80797458246
 20
950.5961714260001
 30
0.0
 11
336.80797458246
 21
960.796171426
 31
0.0
  0
LINE
  5
1869
330
A
100
AcDbEntity
  8
LEVEL001
  6
Continuous
 62
     1
100
AcDbLine
 10
336.00797458246
 20
962.5961714260002
 30
0.0
 11
337.70797458246
 21
962.5961714260002
 31
0.0
  0
ARC
  5
186A
330
A
100
AcDbEntity
  8
LEVEL001
  6
Continuous
 62
     1
100
AcDbCircle
 10
343.30797458273
 20
954.5961714262002
 30
0.0
 40
13.0
100
AcDbArc
 50
128.8211860995381
 51
157.7930708315731
  0
LINE
  5
186B
330
A
100
AcDbEntity
  8
LEVEL001
  6
Continuous
 62
     1
100
AcDbLine
 10
338.70797458246
 20
960.796171426
 30
0.0
 11
336.80797458246
 21
960.796171426
 31
0.0
  0
LINE
  5
186C
330
A
100
AcDbEntity
  8
LEVEL001
  6
Continuous
 62
     1
100
AcDbLine
 10
336.00797458246
 20
962.5961714260002
 30
0.0
 11
336.30133745057
 21
964.3786627228001
 31
0.0
  0
LINE
  5
186D
330
A
100
AcDbEntity
  8
LEVEL001
  6
Continuous
 62
     1
100
AcDbLine
 10
335.15837933501
 20
964.7245522098002
 30
0.0
 11
335.61024814604
 21
964.9191036424999
 31
0.0
  0
ARC
  5
186E
330
A
100
AcDbEntity
  8
LEVEL001
  6
Continuous
 62
     1
100
AcDbCircle
 10
335.80797458153
 20
964.4598605079
 30
0.0
 40
0.5
100
AcDbArc
 50
350.6540288898988
 51
113.2942214559341
  0
ARC
  5
186F
330
A
100
AcDbEntity
  8
LEVEL001
  6
Continuous
 62
     1
100
AcDbCircle
 10
331.54999856453
 20
959.3961714220004
 30
0.0
 40
0.3
100
AcDbArc
 50
157.7930700083745
 51
270.00000031061
  0
LINE
  5
1870
330
A
100
AcDbEntity
  8
LEVEL001
  6
Continuous
 62
     1
100
AcDbLine
 10
336.80797458246
 20
950.5961714260001
 30
0.0
 11
336.80797458246
 21
960.796171426
 31
0.0
  0
LINE
  5
1871
330
A
100
AcDbEntity
  8
LEVEL001
  6
Continuous
 62
     1
100
AcDbLine
 10
336.00797458246
 20
962.5961714260002
 30
0.0
 11
337.70797458246
 21
962.5961714260002
 31
0.0
  0
ARC
  5
1872
330
A
100
AcDbEntity
  8
LEVEL001
  6
Continuous
 62
     1
100
AcDbCircle
 10
343.30797458273
 20
954.5961714262002
 30
0.0
 40
13.0
100
AcDbArc
 50
128.8211860995381
 51
157.7930708315731
  0
LINE
  5
1873
330
A
100
AcDbEntity
  8
LEVEL001
  6
Continuous
 62
     1
100
AcDbLine
 10
338.70797458246
 20
960.796171426
 30
0.0
 11
336.80797458246
 21
960.796171426
 31
0.0
  0
LINE
  5
1874
330
A
100
AcDbEntity
  8
LEVEL001
  6
Continuous
 62
     1
100
AcDbLine
 10
336.00797458246
 20
962.5961714260002
 30
0.0
 11
336.30133745057
 21
964.3786627228001
 31
0.0
  0
LINE
  5
1875
330
A
100
AcDbEntity
  8
LEVEL001
  6
Continuous
 62
     1
100
AcDbLine
 10
335.15837933501
 20
964.7245522098002
 30
0.0
 11
335.61024814604
 21
964.9191036424999
 31
0.0
  0
ARC
  5
1876
330
A
100
AcDbEntity
  8
LEVEL001
  6
Continuous
 62
     1
100
AcDbCircle
 10
335.80797458153
 20
964.4598605079
 30
0.0
 40
0.5
100
AcDbArc
 50
350.6540288898988
 51
113.2942214559341
  0
ARC
  5
1877
330
A
100
AcDbEntity
  8
LEVEL001
  6
Continuous
 62
     1
100
AcDbCircle
 10
355.06595060017
 20
959.3961714224997
 30
0.0
 40
0.3
100
AcDbArc
 50
269.9999997319999
 51
22.20692987885826
  0
ARC
  5
1878
330
A
100
AcDbEntity
  8
LEVEL001
  6
Continuous
 62
     1
100
AcDbCircle
 10
348.90797458246
 20
961.5961714235
 30
0.0
 40
1.0
100
AcDbArc
 50
90.0
 51
179.9999998589898
  0
LINE
  5
1879
330
A
100
AcDbEntity
  8
LEVEL001
  6
Continuous
 62
     1
100
AcDbLine
 10
347.90797458246
 20
960.796171426
 30
0.0
 11
347.90797458246
 21
961.5961714260002
 31
0.0
  0
LINE
  5
187A
330
A
100
AcDbEntity
  8
LEVEL001
  6
Continuous
 62
     1
100
AcDbLine
 10
349.80797458246
 20
950.5961714260001
 30
0.0
 11
349.80797458246
 21
960.796171426
 31
0.0
  0
LINE
  5
187B
330
A
100
AcDbEntity
  8
LEVEL001
  6
Continuous
 62
     1
100
AcDbLine
 10
350.60797458246
 20
962.5961714260002
 30
0.0
 11
348.90797458246
 21
962.5961714260002
 31
0.0
  0
ARC
  5
187C
330
A
100
AcDbEntity
  8
LEVEL001
  6
Continuous
 62
     1
100
AcDbCircle
 10
343.30797458201
 20
954.5961714263002
 30
0.0
 40
13.0
100
AcDbArc
 50
22.20692916749816
 51
51.17881389941329
  0
ARC
  5
187D
330
A
100
AcDbEntity
  8
LEVEL001
  6
Continuous
 62
     1
100
AcDbCircle
 10
337.70797458246
 20
961.5961714232998
 30
0.0
 40
1.0
100
AcDbArc
 50
0.0000001495562967
 51
90.0
  0
LINE
  5
187E
330
A
100
AcDbEntity
  8
LEVEL001
  6
Continuous
 62
     1
100
AcDbLine
 10
338.70797458246
 20
960.796171426
 30
0.0
 11
338.70797458246
 21
961.5961714260002
 31
0.0
  0
LINE
  5
187F
330
A
100
AcDbEntity
  8
LEVEL001
  6
Continuous
 62
     1
100
AcDbLine
 10
347.90797458246
 20
960.796171426
 30
0.0
 11
349.80797458246
 21
960.796171426
 31
0.0
  0
LINE
  5
1880
330
A
100
AcDbEntity
  8
LEVEL001
  6
Continuous
 62
     1
100
AcDbLine
 10
350.60797458246
 20
962.5961714260002
 30
0.0
 11
350.31461171436
 21
964.3786627228001
 31
0.0
  0
LINE
  5
1881
330
A
100
AcDbEntity
  8
LEVEL001
  6
Continuous
 62
     1
100
AcDbLine
 10
351.45756982991
 20
964.7245522098002
 30
0.0
 11
351.00570101889
 21
964.9191036424999
 31
0.0
  0
ARC
  5
1882
330
A
100
AcDbEntity
  8
LEVEL001
  6
Continuous
 62
     1
100
AcDbCircle
 10
350.8079745844
 20
964.4598605074998
 30
0.0
 40
0.5
100
AcDbArc
 50
66.70577867017367
 51
189.3459710421331
  0
ARC
  5
1883
330
A
100
AcDbEntity
  8
LEVEL001
  6
Continuous
 62
     1
100
AcDbCircle
 10
355.06595060017
 20
959.3961714224997
 30
0.0
 40
0.3
100
AcDbArc
 50
269.9999997319999
 51
22.20692987885826
  0
ARC
  5
1884
330
A
100
AcDbEntity
  8
LEVEL001
  6
Continuous
 62
     1
100
AcDbCircle
 10
348.90797458246
 20
961.5961714235
 30
0.0
 40
1.0
100
AcDbArc
 50
90.0
 51
179.9999998589898
  0
LINE
  5
1885
330
A
100
AcDbEntity
  8
LEVEL001
  6
Continuous
 62
     1
100
AcDbLine
 10
347.90797458246
 20
960.796171426
 30
0.0
 11
347.90797458246
 21
961.5961714260002
 31
0.0
  0
LINE
  5
1886
330
A
100
AcDbEntity
  8
LEVEL001
  6
Continuous
 62
     1
100
AcDbLine
 10
349.80797458246
 20
950.5961714260001
 30
0.0
 11
349.80797458246
 21
960.796171426
 31
0.0
  0
LINE
  5
1887
330
A
100
AcDbEntity
  8
LEVEL001
  6
Continuous
 62
     1
100
AcDbLine
 10
350.60797458246
 20
962.5961714260002
 30
0.0
 11
348.90797458246
 21
962.5961714260002
 31
0.0
  0
ARC
  5
1888
330
A
100
AcDbEntity
  8
LEVEL001
  6
Continuous
 62
     1
100
AcDbCircle
 10
343.30797458201
 20
954.5961714263002
 30
0.0
 40
13.0
100
AcDbArc
 50
22.20692916749816
 51
51.17881389941329
  0
ARC
  5
1889
330
A
100
AcDbEntity
  8
LEVEL001
  6
Continuous
 62
     1
100
AcDbCircle
 10
337.70797458246
 20
961.5961714232998
 30
0.0
 40
1.0
100
AcDbArc
 50
0.0000001495562967
 51
90.0
  0
LINE
  5
188A
330
A
100
AcDbEntity
  8
LEVEL001
  6
Continuous
 62
     1
100
AcDbLine
 10
338.70797458246
 20
960.796171426
 30
0.0
 11
338.70797458246
 21
961.5961714260002
 31
0.0
  0
LINE
  5
188B
330
A
100
AcDbEntity
  8
LEVEL001
  6
Continuous
 62
     1
100
AcDbLine
 10
347.90797458246
 20
960.796171426
 30
0.0
 11
349.80797458246
 21
960.796171426
 31
0.0
  0
LINE
  5
188C
330
A
100
AcDbEntity
  8
LEVEL001
  6
Continuous
 62
     1
100
AcDbLine
 10
350.60797458246
 20
962.5961714260002
 30
0.0
 11
350.31461171436
 21
964.3786627228001
 31
0.0
  0
LINE
  5
188D
330
A
100
AcDbEntity
  8
LEVEL001
  6
Continuous
 62
     1
100
AcDbLine
 10
351.45756982991
 20
964.7245522098002
 30
0.0
 11
351.00570101889
 21
964.9191036424999
 31
0.0
  0
ARC
  5
188E
330
A
100
AcDbEntity
  8
LEVEL001
  6
Continuous
 62
     1
100
AcDbCircle
 10
350.8079745844
 20
964.4598605074998
 30
0.0
 40
0.5
100
AcDbArc
 50
66.70577867017367
 51
189.3459710421331
  0
LINE
  5
18A2
330
A
100
AcDbEntity
  8
LEVEL001
  6
Continuous
 62
     3
370
    30
100
AcDbLine
 10
243.30797458246
 20
999.5961714260001
 30
0.0
 11
218.30797458246
 21
999.5961714260001
 31
0.0
  0
LINE
  5
18A3
330
A
100
AcDbEntity
  8
LEVEL001
  6
Continuous
 62
     3
370
    30
100
AcDbLine
 10
218.30797458246
 20
1030.8490355831
 30
0.0
 11
218.30797458246
 21
999.5961714260001
 31
0.0
  0
LINE
  5
18A4
330
A
100
AcDbEntity
  8
LEVEL001
  6
Continuous
 62
     3
370
    30
100
AcDbLine
 10
243.30797458246
 20
1009.596171426
 30
0.0
 11
243.30797458246
 21
999.5961714260001
 31
0.0
  0
LWPOLYLINE
  5
18A5
330
A
100
AcDbEntity
  8
LEVEL001
  6
Continuous
 62
     1
100
AcDbPolyline
 90
        7
 70
     0
 43
0.0
 10
331.54999856616
 20
959.0961714260002
 10
333.80797458247
 20
959.0961714260002
 10
333.80797458247
 20
954.8961714260004
 10
334.10797458247
 20
954.5961714260002
 10
333.80797458247
 20
954.296171426
 10
333.80797458247
 20
950.0961714260002
 10
331.54999856616
 20
950.0961714260002
  0
ARC
  5
18AE
330
A
100
AcDbEntity
  8
LEVEL001
  6
Continuous
 62
     1
100
AcDbCircle
 10
331.54999856171
 20
949.796171426
 30
0.0
 40
0.3
100
AcDbArc
 50
89.99999915007199
 51
202.2069294909404
  0
ARC
  5
18AF
330
A
100
AcDbEntity
  8
LEVEL001
  6
Continuous
 62
     1
100
AcDbCircle
 10
343.30797458241
 20
954.5961714261002
 30
0.0
 40
13.0
100
AcDbArc
 50
202.2069291704526
 51
247.7930708307059
  0
LINE
  5
18B0
330
A
100
AcDbEntity
  8
LEVEL001
  6
Continuous
 62
     1
100
AcDbLine
 10
337.70797458246
 20
950.5961714260001
 30
0.0
 11
336.80797458246
 21
950.5961714260001
 31
0.0
  0
LWPOLYLINE
  5
18B1
330
A
100
AcDbEntity
  8
LEVEL001
  6
Continuous
 62
     1
100
AcDbPolyline
 90
        7
 70
     0
 43
0.0
 10
331.54999856616
 20
959.0961714260002
 10
333.80797458247
 20
959.0961714260002
 10
333.80797458247
 20
954.8961714260004
 10
334.10797458247
 20
954.5961714260002
 10
333.80797458247
 20
954.296171426
 10
333.80797458247
 20
950.0961714260002
 10
331.54999856616
 20
950.0961714260002
  0
ARC
  5
18BA
330
A
100
AcDbEntity
  8
LEVEL001
  6
Continuous
 62
     1
100
AcDbCircle
 10
331.54999856171
 20
949.796171426
 30
0.0
 40
0.3
100
AcDbArc
 50
89.99999915007199
 51
202.2069294909404
  0
ARC
  5
18BB
330
A
100
AcDbEntity
  8
LEVEL001
  6
Continuous
 62
     1
100
AcDbCircle
 10
343.30797458241
 20
954.5961714261002
 30
0.0
 40
13.0
100
AcDbArc
 50
202.2069291704526
 51
247.7930708307059
  0
LINE
  5
18BC
330
A
100
AcDbEntity
  8
LEVEL001
  6
Continuous
 62
     1
100
AcDbLine
 10
337.70797458246
 20
950.5961714260001
 30
0.0
 11
336.80797458246
 21
950.5961714260001
 31
0.0
  0
LWPOLYLINE
  5
18BD
330
A
100
AcDbEntity
  8
LEVEL001
  6
Continuous
 62
     1
100
AcDbPolyline
 90
        3
 70
     0
 43
0.0
 10
347.80797458246
 20
944.0961714260001
 10
343.60797458252
 20
944.0961714260001
 10
343.30797458246
 20
944.3961714260003
  0
LINE
  5
18C2
330
A
100
AcDbEntity
  8
LEVEL001
  6
Continuous
 62
     1
100
AcDbLine
 10
347.80797458246
 20
942.8381954097003
 30
0.0
 11
347.80797458246
 21
944.0961714260001
 31
0.0
  0
LWPOLYLINE
  5
18C3
330
A
100
AcDbEntity
  8
LEVEL001
  6
Continuous
 62
     1
100
AcDbPolyline
 90
        7
 70
     0
 43
0.0
 10
355.06595059877
 20
959.0961714260002
 10
352.80797458246
 20
959.0961714260002
 10
352.80797458246
 20
954.8961714260004
 10
352.50797458245
 20
954.5961714260002
 10
352.80797458246
 20
954.296171426
 10
352.80797458246
 20
950.0961714260002
 10
355.06595059877
 20
950.0961714260002
  0
ARC
  5
18CC
330
A
100
AcDbEntity
  8
LEVEL001
  6
Continuous
 62
     1
100
AcDbCircle
 10
355.06595060264
 20
949.796171426
 30
0.0
 40
0.3
100
AcDbArc
 50
337.7930705508229
 51
90.00000074006297
  0
ARC
  5
18CD
330
A
100
AcDbEntity
  8
LEVEL001
  6
Continuous
 62
     1
100
AcDbCircle
 10
343.30797458252
 20
954.5961714261002
 30
0.0
 40
13.0
100
AcDbArc
 50
292.2069291693161
 51
337.7930708296036
  0
LINE
  5
18CE
330
A
100
AcDbEntity
  8
LEVEL001
  6
Continuous
 62
     1
100
AcDbLine
 10
343.30797458246
 20
946.5961714260002
 30
0.0
 11
347.90797458246
 21
946.5961714260002
 31
0.0
  0
LINE
  5
18CF
330
A
100
AcDbEntity
  8
LEVEL001
  6
Continuous
 62
     1
100
AcDbLine
 10
348.90797458246
 20
946.5961714260002
 30
0.0
 11
348.90797458246
 21
948.5961714260001
 31
0.0
  0
ARC
  5
18D0
330
A
100
AcDbEntity
  8
LEVEL001
  6
Continuous
 62
     1
100
AcDbCircle
 10
348.90797458246
 20
949.5961714260001
 30
0.0
 40
1.0
100
AcDbArc
 50
90.0
 51
270.0
  0
LINE
  5
18D1
330
A
100
AcDbEntity
  8
LEVEL001
  6
Continuous
 62
     1
100
AcDbLine
 10
348.90797458246
 20
950.5961714260001
 30
0.0
 11
349.80797458246
 21
950.5961714260001
 31
0.0
  0
LINE
  5
18D2
330
A
100
AcDbEntity
  8
LEVEL001
  6
Continuous
 62
     1
100
AcDbLine
 10
348.90797458246
 20
946.5961714260002
 30
0.0
 11
343.30797458246
 21
946.5961714260002
 31
0.0
  0
LWPOLYLINE
  5
18D3
330
A
100
AcDbEntity
  8
LEVEL001
  6
Continuous
 62
     1
100
AcDbPolyline
 90
        3
 70
     0
 43
0.0
 10
338.80797458246
 20
944.0961714260001
 10
343.00797458241
 20
944.0961714260001
 10
343.30797458246
 20
944.3961714260003
  0
LINE
  5
18D8
330
A
100
AcDbEntity
  8
LEVEL001
  6
Continuous
 62
     1
100
AcDbLine
 10
338.80797458246
 20
942.8381954097003
 30
0.0
 11
338.80797458246
 21
944.0961714260001
 31
0.0
  0
LINE
  5
18D9
330
A
100
AcDbEntity
  8
LEVEL001
  6
Continuous
 62
     1
100
AcDbLine
 10
343.30797458246
 20
946.5961714260002
 30
0.0
 11
338.70797458246
 21
946.5961714260002
 31
0.0
  0
LINE
  5
18DA
330
A
100
AcDbEntity
  8
LEVEL001
  6
Continuous
 62
     1
100
AcDbLine
 10
337.70797458246
 20
946.5961714260002
 30
0.0
 11
337.70797458246
 21
948.5961714260001
 31
0.0
  0
ARC
  5
18DB
330
A
100
AcDbEntity
  8
LEVEL001
  6
Continuous
 62
     1
100
AcDbCircle
 10
337.70797458246
 20
949.5961714260001
 30
0.0
 40
1.0
100
AcDbArc
 50
270.0
 51
90.0
  0
LINE
  5
18DC
330
A
100
AcDbEntity
  8
LEVEL001
  6
Continuous
 62
     1
100
AcDbLine
 10
337.70797458246
 20
946.5961714260002
 30
0.0
 11
343.30797458246
 21
946.5961714260002
 31
0.0
  0
LWPOLYLINE
  5
18DD
330
A
100
AcDbEntity
  8
LEVEL001
  6
Continuous
 62
     1
100
AcDbPolyline
 90
        3
 70
     0
 43
0.0
 10
347.80797458246
 20
944.0961714260001
 10
343.60797458252
 20
944.0961714260001
 10
343.30797458246
 20
944.3961714260003
  0
LINE
  5
18E2
330
A
100
AcDbEntity
  8
LEVEL001
  6
Continuous
 62
     1
100
AcDbLine
 10
347.80797458246
 20
942.8381954097003
 30
0.0
 11
347.80797458246
 21
944.0961714260001
 31
0.0
  0
LWPOLYLINE
  5
18E3
330
A
100
AcDbEntity
  8
LEVEL001
  6
Continuous
 62
     1
100
AcDbPolyline
 90
        7
 70
     0
 43
0.0
 10
355.06595059877
 20
959.0961714260002
 10
352.80797458246
 20
959.0961714260002
 10
352.80797458246
 20
954.8961714260004
 10
352.50797458245
 20
954.5961714260002
 10
352.80797458246
 20
954.296171426
 10
352.80797458246
 20
950.0961714260002
 10
355.06595059877
 20
950.0961714260002
  0
ARC
  5
18EC
330
A
100
AcDbEntity
  8
LEVEL001
  6
Continuous
 62
     1
100
AcDbCircle
 10
355.06595060264
 20
949.796171426
 30
0.0
 40
0.3
100
AcDbArc
 50
337.7930705508229
 51
90.00000074006297
  0
ARC
  5
18ED
330
A
100
AcDbEntity
  8
LEVEL001
  6
Continuous
 62
     1
100
AcDbCircle
 10
343.30797458252
 20
954.5961714261002
 30
0.0
 40
13.0
100
AcDbArc
 50
292.2069291693161
 51
337.7930708296036
  0
LINE
  5
18EE
330
A
100
AcDbEntity
  8
LEVEL001
  6
Continuous
 62
     1
100
AcDbLine
 10
343.30797458246
 20
946.5961714260002
 30
0.0
 11
347.90797458246
 21
946.5961714260002
 31
0.0
  0
LINE
  5
18EF
330
A
100
AcDbEntity
  8
LEVEL001
  6
Continuous
 62
     1
100
AcDbLine
 10
348.90797458246
 20
946.5961714260002
 30
0.0
 11
348.90797458246
 21
948.5961714260001
 31
0.0
  0
ARC
  5
18F0
330
A
100
AcDbEntity
  8
LEVEL001
  6
Continuous
 62
     1
100
AcDbCircle
 10
348.90797458246
 20
949.5961714260001
 30
0.0
 40
1.0
100
AcDbArc
 50
90.0
 51
270.0
  0
LINE
  5
18F1
330
A
100
AcDbEntity
  8
LEVEL001
  6
Continuous
 62
     1
100
AcDbLine
 10
348.90797458246
 20
950.5961714260001
 30
0.0
 11
349.80797458246
 21
950.5961714260001
 31
0.0
  0
LINE
  5
18F2
330
A
100
AcDbEntity
  8
LEVEL001
  6
Continuous
 62
     1
100
AcDbLine
 10
348.90797458246
 20
946.5961714260002
 30
0.0
 11
343.30797458246
 21
946.5961714260002
 31
0.0
  0
LWPOLYLINE
  5
18F3
330
A
100
AcDbEntity
  8
LEVEL001
  6
Continuous
 62
     1
100
AcDbPolyline
 90
        3
 70
     0
 43
0.0
 10
338.80797458246
 20
944.0961714260001
 10
343.00797458241
 20
944.0961714260001
 10
343.30797458246
 20
944.3961714260003
  0
LINE
  5
18F8
330
A
100
AcDbEntity
  8
LEVEL001
  6
Continuous
 62
     1
100
AcDbLine
 10
338.80797458246
 20
942.8381954097003
 30
0.0
 11
338.80797458246
 21
944.0961714260001
 31
0.0
  0
LINE
  5
18F9
330
A
100
AcDbEntity
  8
LEVEL001
  6
Continuous
 62
     1
100
AcDbLine
 10
343.30797458246
 20
946.5961714260002
 30
0.0
 11
338.70797458246
 21
946.5961714260002
 31
0.0
  0
LINE
  5
18FA
330
A
100
AcDbEntity
  8
LEVEL001
  6
Continuous
 62
     1
100
AcDbLine
 10
337.70797458246
 20
946.5961714260002
 30
0.0
 11
337.70797458246
 21
948.5961714260001
 31
0.0
  0
ARC
  5
18FB
330
A
100
AcDbEntity
  8
LEVEL001
  6
Continuous
 62
     1
100
AcDbCircle
 10
337.70797458246
 20
949.5961714260001
 30
0.0
 40
1.0
100
AcDbArc
 50
270.0
 51
90.0
  0
LINE
  5
18FC
330
A
100
AcDbEntity
  8
LEVEL001
  6
Continuous
 62
     1
100
AcDbLine
 10
337.70797458246
 20
946.5961714260002
 30
0.0
 11
343.30797458246
 21
946.5961714260002
 31
0.0
  0
LINE
  5
18FD
330
A
100
AcDbEntity
  8
LEVEL001
  6
Continuous
 62
     3
370
    30
100
AcDbLine
 10
243.30797458246
 20
1009.596171426
 30
0.0
 11
474.42689065927
 21
1009.596171426
 31
0.0
  0
LINE
  5
18FE
330
A
100
AcDbEntity
  8
LEVEL001
  6
Continuous
 62
     1
100
AcDbLine
 10
335.80797458246
 20
771.1160641401002
 30
0.0
 11
337.70797458246
 21
771.1160641401002
 31
0.0
  0
ARC
  5
18FF
330
A
100
AcDbEntity
  8
LEVEL001
  6
Continuous
 62
     1
100
AcDbCircle
 10
337.70797458246
 20
770.1160641420001
 30
0.0
 40
1.0
100
AcDbArc
 50
0.0
 51
90.0
  0
LWPOLYLINE
  5
1900
330
A
100
AcDbEntity
  8
LEVEL001
  6
Continuous
 62
     1
100
AcDbPolyline
 90
        4
 70
     0
 43
0.0
 10
336.80797458246
 20
760.1160641401001
 10
336.80797458246
 20
769.1160641401002
 10
338.70797458246
 20
769.1160641401002
 10
338.70797458246
 20
770.1160641401002
  0
LWPOLYLINE
  5
1906
330
A
100
AcDbEntity
  8
LEVEL001
  6
Continuous
 62
     1
100
AcDbPolyline
 90
        7
 70
     0
 43
0.0
 10
331.11166366481
 20
768.6160641401002
 10
333.80797458246
 20
768.6160641401002
 10
333.80797458246
 20
764.4160641402004
 10
334.10797458247
 20
764.1160641402002
 10
333.80797458246
 20
763.8160641402
 10
333.80797458246
 20
759.6160641401001
 10
331.11166366481
 20
759.6160641401001
  0
ARC
  5
190F
330
A
100
AcDbEntity
  8
LEVEL001
  6
Continuous
 62
     1
100
AcDbCircle
 10
337.70797458246
 20
759.1160641401001
 30
0.0
 40
1.0
100
AcDbArc
 50
270.0
 51
90.0
  0
LINE
  5
1910
330
A
100
AcDbEntity
  8
LEVEL001
  6
Continuous
 62
     1
100
AcDbLine
 10
337.70797458246
 20
758.1160641401002
 30
0.0
 11
337.70797458246
 21
756.1160641401002
 31
0.0
  0
LINE
  5
1911
330
A
100
AcDbEntity
  8
LEVEL001
  6
Continuous
 62
     1
100
AcDbLine
 10
348.90797458246
 20
756.1160641401002
 30
0.0
 11
337.70797458246
 21
756.1160641401002
 31
0.0
  0
LINE
  5
1912
330
A
100
AcDbEntity
  8
LEVEL001
  6
Continuous
 62
     1
100
AcDbLine
 10
337.70797458246
 20
760.1160641401001
 30
0.0
 11
336.80797458246
 21
760.1160641401001
 31
0.0
  0
ARC
  5
1913
330
A
100
AcDbEntity
  8
LEVEL001
  6
Continuous
 62
     1
100
AcDbCircle
 10
348.90797458246
 20
759.1160641401001
 30
0.0
 40
1.0
100
AcDbArc
 50
90.0
 51
270.0
  0
LINE
  5
1914
330
A
100
AcDbEntity
  8
LEVEL001
  6
Continuous
 62
     1
100
AcDbLine
 10
348.90797458246
 20
760.1160641401001
 30
0.0
 11
349.80797458246
 21
760.1160641401001
 31
0.0
  0
LINE
  5
1915
330
A
100
AcDbEntity
  8
LEVEL001
  6
Continuous
 62
     1
100
AcDbLine
 10
348.90797458246
 20
756.1160641401002
 30
0.0
 11
348.90797458246
 21
758.1160641401002
 31
0.0
  0
LWPOLYLINE
  5
1916
330
A
100
AcDbEntity
  8
LEVEL001
  6
Continuous
 62
     1
100
AcDbPolyline
 90
        4
 70
     0
 43
0.0
 10
349.80797458246
 20
760.1160641401001
 10
349.80797458246
 20
769.1160641401002
 10
347.90797458246
 20
769.1160641401002
 10
347.90797458246
 20
770.1160641401002
  0
LINE
  5
191C
330
A
100
AcDbEntity
  8
LEVEL001
  6
Continuous
 62
     1
100
AcDbLine
 10
350.80797458246
 20
771.1160641401002
 30
0.0
 11
348.90797458246
 21
771.1160641401002
 31
0.0
  0
ARC
  5
191D
330
A
100
AcDbEntity
  8
LEVEL001
  6
Continuous
 62
     1
100
AcDbCircle
 10
348.90797458246
 20
770.1160641421002
 30
0.0
 40
1.0
100
AcDbArc
 50
90.0
 51
180.0000001148509
  0
LWPOLYLINE
  5
191E
330
A
100
AcDbEntity
  8
LEVEL001
  6
Continuous
 62
     1
100
AcDbPolyline
 90
        7
 70
     0
 43
0.0
 10
355.50428550011
 20
759.6160641401001
 10
352.80797458246
 20
759.6160641401001
 10
352.80797458246
 20
763.8160641402
 10
352.50797458246
 20
764.1160641402002
 10
352.80797458246
 20
764.4160641402004
 10
352.80797458246
 20
768.6160641401002
 10
355.50428550011
 20
768.6160641401002
  0
LWPOLYLINE
  5
1927
330
A
100
AcDbEntity
  8
LEVEL001
  6
Continuous
 62
     1
100
AcDbPolyline
 90
        5
 70
     0
 43
0.0
 10
338.80797458246
 20
753.6160641401002
 10
343.00797458241
 20
753.6160641401002
 10
343.30797458246
 20
753.9160641402004
 10
343.60797458251
 20
753.6160641401002
 10
347.80797458246
 20
753.6160641401002
  0
LINE
  5
192E
330
A
100
AcDbEntity
  8
LEVEL001
  6
Continuous
 62
     1
100
AcDbLine
 10
338.80797458246
 20
751.9197532224998
 30
0.0
 11
338.80797458246
 21
753.6160641401002
 31
0.0
  0
LINE
  5
192F
330
A
100
AcDbEntity
  8
LEVEL001
  6
Continuous
 62
     1
100
AcDbLine
 10
347.80797458246
 20
753.6160641401002
 30
0.0
 11
347.80797458246
 21
751.9197532224998
 31
0.0
  0
LINE
  5
1930
330
A
100
AcDbEntity
  8
LEVEL001
  6
Continuous
 62
     1
100
AcDbLine
 10
350.80797458246
 20
771.1160641401002
 30
0.0
 11
350.63894373152
 21
772.1160641401001
 31
0.0
  0
LINE
  5
1931
330
A
100
AcDbEntity
  8
LEVEL001
  6
Continuous
 62
     1
100
AcDbLine
 10
335.80797458246
 20
771.1160641401002
 30
0.0
 11
335.97700543341
 21
772.1160641401001
 31
0.0
  0
ARC
  5
1932
330
A
100
AcDbEntity
  8
LEVEL001
  6
Continuous
 62
     1
100
AcDbCircle
 10
335.80797458243
 20
774.1160641400001
 30
0.0
 40
0.5
100
AcDbArc
 50
350.4059317934689
 51
126.8698976310991
  0
LINE
  5
1933
330
A
100
AcDbEntity
  8
LEVEL001
  6
Continuous
 62
     1
100
AcDbLine
 10
335.97700543341
 20
772.1160641401001
 30
0.0
 11
336.30098123105
 21
774.0327308067999
 31
0.0
  0
LINE
  5
1934
330
A
100
AcDbEntity
  8
LEVEL001
  6
Continuous
 62
     1
100
AcDbLine
 10
337.97700543341
 20
772.1160641401001
 30
0.0
 11
338.30572031515
 21
778.1051060655999
 31
0.0
  0
LINE
  5
1935
330
A
100
AcDbEntity
  8
LEVEL001
  6
Continuous
 62
     1
100
AcDbLine
 10
335.97700543341
 20
772.1160641401001
 30
0.0
 11
337.97700543341
 21
772.1160641401001
 31
0.0
  0
ARC
  5
1936
330
A
100
AcDbEntity
  8
LEVEL001
  6
Continuous
 62
     1
100
AcDbCircle
 10
343.3079745824
 20
764.1160641401001
 30
0.0
 40
17.0
100
AcDbArc
 50
114.7938624628029
 51
65.20613753678247
  0
ARC
  5
1937
330
A
100
AcDbEntity
  8
LEVEL001
  6
Continuous
 62
     1
100
AcDbCircle
 10
336.80797458254
 20
778.1873114209002
 30
0.0
 40
1.5
100
AcDbArc
 50
356.8584127957306
 51
114.7938624865274
  0
ARC
  5
1938
330
A
100
AcDbEntity
  8
LEVEL001
  6
Continuous
 62
     1
100
AcDbCircle
 10
343.30797458217
 20
764.1160641399001
 30
0.0
 40
13.0
100
AcDbArc
 50
126.8698976442578
 51
159.7477532564814
  0
ARC
  5
1939
330
A
100
AcDbEntity
  8
LEVEL001
  6
Continuous
 62
     1
100
AcDbCircle
 10
343.30797458255
 20
764.1160641404003
 30
0.0
 40
13.0
100
AcDbArc
 50
159.747753258981
 51
200.2522467430743
  0
ARC
  5
193A
330
A
100
AcDbEntity
  8
LEVEL001
  6
Continuous
 62
     1
100
AcDbCircle
 10
339.80797458246
 20
752.3697532224996
 30
0.0
 40
0.75
100
AcDbArc
 50
0.0
 51
180.0
  0
LINE
  5
193B
330
A
100
AcDbEntity
  8
LEVEL001
  6
Continuous
 62
     1
100
AcDbLine
 10
340.55797458246
 20
751.4102583805997
 30
0.0
 11
340.55797458246
 21
752.3697532224996
 31
0.0
  0
LINE
  5
193C
330
A
100
AcDbEntity
  8
LEVEL001
  6
Continuous
 62
     1
100
AcDbLine
 10
339.05797458246
 20
751.8304017647997
 30
0.0
 11
339.05797458246
 21
752.3697532224996
 31
0.0
  0
ARC
  5
193D
330
A
100
AcDbEntity
  8
LEVEL001
  6
Continuous
 62
     1
100
AcDbCircle
 10
343.30797459908
 20
764.1160641340002
 30
0.0
 40
13.0
100
AcDbArc
 50
249.7477531797203
 51
250.9178751183371
  0
ARC
  5
193E
330
A
100
AcDbEntity
  8
LEVEL001
  6
Continuous
 62
     1
100
AcDbCircle
 10
343.30797458237
 20
764.1160641402002
 30
0.0
 40
13.0
100
AcDbArc
 50
257.7874747315275
 51
282.2125252692854
  0
ARC
  5
193F
330
A
100
AcDbEntity
  8
LEVEL001
  6
Continuous
 62
     1
100
AcDbCircle
 10
346.80797458246
 20
752.3697532224996
 30
0.0
 40
0.75
100
AcDbArc
 50
0.0
 51
180.0
  0
LINE
  5
1940
330
A
100
AcDbEntity
  8
LEVEL001
  6
Continuous
 62
     1
100
AcDbLine
 10
346.05797458246
 20
751.4102583805997
 30
0.0
 11
346.05797458246
 21
752.3697532224996
 31
0.0
  0
LINE
  5
1941
330
A
100
AcDbEntity
  8
LEVEL001
  6
Continuous
 62
     1
100
AcDbLine
 10
347.55797458246
 20
751.8304017647997
 30
0.0
 11
347.55797458246
 21
752.3697532224996
 31
0.0
  0
ARC
  5
1942
330
A
100
AcDbEntity
  8
LEVEL001
  6
Continuous
 62
     1
100
AcDbCircle
 10
343.30797458049
 20
764.1160641393999
 30
0.0
 40
13.0
100
AcDbArc
 50
289.0821248127951
 51
290.2522467513859
  0
ARC
  5
1943
330
A
100
AcDbEntity
  8
LEVEL001
  6
Continuous
 62
     1
100
AcDbCircle
 10
343.30797458254
 20
764.1160641403002
 30
0.0
 40
13.0
100
AcDbArc
 50
339.7477532567871
 51
20.25224674140802
  0
ARC
  5
1944
330
A
100
AcDbEntity
  8
LEVEL001
  6
Continuous
 62
     1
100
AcDbCircle
 10
343.3079745826
 20
764.1160641398
 30
0.0
 40
13.0
100
AcDbArc
 50
20.25224674390728
 51
53.13010235560254
  0
ARC
  5
1945
330
A
100
AcDbEntity
  8
LEVEL001
  6
Continuous
 62
     1
100
AcDbCircle
 10
343.30797458235
 20
764.1160641401001
 30
0.0
 40
13.0
100
AcDbArc
 50
290.2522467427345
 51
339.7477532581754
  0
ARC
  5
1946
330
A
100
AcDbEntity
  8
LEVEL001
  6
Continuous
 62
     1
100
AcDbCircle
 10
343.30797458239
 20
764.1160641403002
 30
0.0
 40
13.0
100
AcDbArc
 50
200.2522467431576
 51
249.7477532584432
  0
ARC
  5
1947
330
A
100
AcDbEntity
  8
LEVEL001
  6
Continuous
 62
     1
100
AcDbCircle
 10
350.80797458343
 20
774.1160641344004
 30
0.0
 40
0.5
100
AcDbArc
 50
53.13010283375319
 51
189.5940675653622
  0
LINE
  5
1948
330
A
100
AcDbEntity
  8
LEVEL001
  6
Continuous
 62
     1
100
AcDbLine
 10
350.63894373152
 20
772.1160641401001
 30
0.0
 11
350.31496793387
 21
774.0327308067999
 31
0.0
  0
LINE
  5
1949
330
A
100
AcDbEntity
  8
LEVEL001
  6
Continuous
 62
     1
100
AcDbLine
 10
350.63894373152
 20
772.1160641401001
 30
0.0
 11
348.63894373152
 21
772.1160641401001
 31
0.0
  0
LINE
  5
194A
330
A
100
AcDbEntity
  8
LEVEL001
  6
Continuous
 62
     1
100
AcDbLine
 10
348.63894373152
 20
772.1160641401001
 30
0.0
 11
348.31022884978
 21
778.1051060655999
 31
0.0
  0
ARC
  5
194B
330
A
100
AcDbEntity
  8
LEVEL001
  6
Continuous
 62
     1
100
AcDbCircle
 10
349.80797458237
 20
778.1873114212003
 30
0.0
 40
1.5
100
AcDbArc
 50
65.20613750740936
 51
183.1415872171338
  0
LINE
  5
194C
330
A
100
AcDbEntity
  8
LEVEL001
  6
DASHDOT
 62
     6
370
    15
100
AcDbLine
 10
395.30336855019
 20
515.0802737308004
 30
0.0
 11
327.31258061473
 21
515.0802737308004
 31
0.0
  0
LINE
  5
194D
330
A
100
AcDbEntity
  8
LEVEL001
  6
Continuous
 62
     5
100
AcDbLine
 10
376.20797458246
 20
502.0802737308003
 30
0.0
 11
376.20797458246
 21
528.0802737308004
 31
0.0
  0
ARC
  5
194E
330
A
100
AcDbEntity
  8
LEVEL001
  6
Continuous
 62
     5
100
AcDbCircle
 10
374.20797458304
 20
528.0802737308004
 30
0.0
 40
2.0
100
AcDbArc
 50
0.0
 51
90.000000016626
  0
ARC
  5
194F
330
A
100
AcDbEntity
  8
LEVEL001
  6
Continuous
 62
     5
100
AcDbCircle
 10
383.70797458416
 20
528.5802737308004
 30
0.0
 40
2.5
100
AcDbArc
 50
0.0
 51
90.00000003892097
  0
LINE
  5
1950
330
A
100
AcDbEntity
  8
LEVEL001
  6
Continuous
 62
     5
100
AcDbLine
 10
386.20797458246
 20
501.5802737308003
 30
0.0
 11
386.20797458246
 21
528.5802737308004
 31
0.0
  0
ARC
  5
1951
330
A
100
AcDbEntity
  8
LEVEL001
  6
Continuous
 62
     5
100
AcDbCircle
 10
374.20797458246
 20
502.0802737310996
 30
0.0
 40
2.0
100
AcDbArc
 50
270.0
 51
0.0
  0
ARC
  5
1952
330
A
100
AcDbEntity
  8
LEVEL001
  6
Continuous
 62
     5
100
AcDbCircle
 10
383.70797458246
 20
501.5802737314998
 30
0.0
 40
2.5
100
AcDbArc
 50
270.0
 51
0.0
  0
LINE
  5
1953
330
A
100
AcDbEntity
  8
LEVEL001
  6
Continuous
 62
     5
100
AcDbLine
 10
374.20797458246
 20
530.0802737308003
 30
0.0
 11
360.30797458251
 21
530.0802737308003
 31
0.0
  0
LINE
  5
1954
330
A
100
AcDbEntity
  8
LEVEL001
  6
Continuous
 62
     5
100
AcDbLine
 10
383.70797458246
 20
531.0802737308003
 30
0.0
 11
360.30797458251
 21
531.0802737308003
 31
0.0
  0
LINE
  5
1955
330
A
100
AcDbEntity
  8
LEVEL001
  6
Continuous
 62
     5
100
AcDbLine
 10
360.30797458251
 20
499.0802737308004
 30
0.0
 11
383.70797458246
 21
499.0802737308004
 31
0.0
  0
LINE
  5
1956
330
A
100
AcDbEntity
  8
LEVEL001
  6
Continuous
 62
     5
100
AcDbLine
 10
360.30797458251
 20
500.0802737308004
 30
0.0
 11
374.20797458246
 21
500.0802737308004
 31
0.0
  0
LINE
  5
1957
330
A
100
AcDbEntity
  8
LEVEL001
  6
DASHDOT
 62
     6
370
    15
100
AcDbLine
 10
395.30336855019
 20
367.8851885984995
 30
0.0
 11
327.31258061473
 21
367.8851885984995
 31
0.0
  0
LINE
  5
1958
330
A
100
AcDbEntity
  8
LEVEL001
  6
Continuous
 62
     5
100
AcDbLine
 10
376.20797458246
 20
354.8851885984996
 30
0.0
 11
376.20797458246
 21
380.8851885984996
 31
0.0
  0
ARC
  5
1959
330
A
100
AcDbEntity
  8
LEVEL001
  6
Continuous
 62
     5
100
AcDbCircle
 10
374.20797458132
 20
380.8851885984996
 30
0.0
 40
2.0
100
AcDbArc
 50
0.0
 51
89.99999996725199
  0
ARC
  5
195A
330
A
100
AcDbEntity
  8
LEVEL001
  6
Continuous
 62
     5
100
AcDbCircle
 10
383.70797458244
 20
381.3851885984996
 30
0.0
 40
2.5
100
AcDbArc
 50
0.0
 51
89.999999999419
  0
LINE
  5
195B
330
A
100
AcDbEntity
  8
LEVEL001
  6
Continuous
 62
     5
100
AcDbLine
 10
386.20797458246
 20
354.3851885984996
 30
0.0
 11
386.20797458246
 21
381.3851885984996
 31
0.0
  0
ARC
  5
195C
330
A
100
AcDbEntity
  8
LEVEL001
  6
Continuous
 62
     5
100
AcDbCircle
 10
374.20797458246
 20
354.8851886005004
 30
0.0
 40
2.0
100
AcDbArc
 50
270.0
 51
0.0
  0
ARC
  5
195D
330
A
100
AcDbEntity
  8
LEVEL001
  6
Continuous
 62
     5
100
AcDbCircle
 10
383.70797458246
 20
354.3851885994
 30
0.0
 40
2.5
100
AcDbArc
 50
270.0
 51
0.0
  0
LINE
  5
195E
330
A
100
AcDbEntity
  8
LEVEL001
  6
Continuous
 62
     5
100
AcDbLine
 10
374.20797458246
 20
382.8851885984996
 30
0.0
 11
360.30797458251
 21
382.8851885984996
 31
0.0
  0
LINE
  5
195F
330
A
100
AcDbEntity
  8
LEVEL001
  6
Continuous
 62
     5
100
AcDbLine
 10
383.70797458246
 20
383.8851885984995
 30
0.0
 11
360.30797458251
 21
383.8851885984995
 31
0.0
  0
LINE
  5
1960
330
A
100
AcDbEntity
  8
LEVEL001
  6
Continuous
 62
     5
100
AcDbLine
 10
360.30797458251
 20
351.8851885984996
 30
0.0
 11
383.70797458246
 21
351.8851885984996
 31
0.0
  0
LINE
  5
1961
330
A
100
AcDbEntity
  8
LEVEL001
  6
Continuous
 62
     5
100
AcDbLine
 10
360.30797458251
 20
352.8851885984995
 30
0.0
 11
374.20797458246
 21
352.8851885984995
 31
0.0
  0
LWPOLYLINE
  5
1962
330
A
100
AcDbEntity
  8
LEVEL001
  6
Continuous
 62
     5
100
AcDbPolyline
 90
        4
 70
     0
 43
0.0
 10
386.20797458246
 20
817.0160641400999
 10
386.20797458246
 20
800.0160641400999
 10
376.20797458246
 20
790.0160641400998
 10
338.90797458246
 20
790.0160641400998
  0
LINE
  5
1968
330
A
100
AcDbEntity
  8
LEVEL001
  6
Continuous
 62
     5
100
AcDbLine
 10
334.70797458246
 20
817.0160641400999
 30
0.0
 11
386.20797458246
 21
817.0160641400999
 31
0.0
  0
LINE
  5
1969
330
A
100
AcDbEntity
  8
LEVEL001
  6
Continuous
 62
     5
100
AcDbLine
 10
334.70797458246
 20
802.4600499556999
 30
0.0
 11
334.70797458246
 21
814.1160641401002
 31
0.0
  0
LINE
  5
196A
330
A
100
AcDbEntity
  8
LEVEL001
  6
Continuous
 62
     5
100
AcDbLine
 10
334.70797458246
 20
817.0160641400999
 30
0.0
 11
334.70797458246
 21
801.8600499556995
 31
0.0
  0
ARC
  5
196B
330
A
100
AcDbEntity
  8
LEVEL001
  6
Continuous
 62
     5
100
AcDbCircle
 10
353.50797458246
 20
801.8600499556995
 30
0.0
 40
18.8
100
AcDbArc
 50
180.0
 51
219.0500668713134
  0
LWPOLYLINE
  5
196C
330
A
100
AcDbEntity
  8
LEVEL001
  6
Continuous
 62
     5
100
AcDbPolyline
 90
        4
 70
     0
 43
0.0
 10
386.20797458246
 20
1007.496171426
 10
386.20797458246
 20
990.4961714259998
 10
376.20797458246
 20
980.4961714259999
 10
338.90797458246
 20
980.4961714259999
  0
LINE
  5
1972
330
A
100
AcDbEntity
  8
LEVEL001
  6
Continuous
 62
     5
100
AcDbLine
 10
334.70797458246
 20
1007.496171426
 30
0.0
 11
386.20797458246
 21
1007.496171426
 31
0.0
  0
LINE
  5
1973
330
A
100
AcDbEntity
  8
LEVEL001
  6
Continuous
 62
     5
100
AcDbLine
 10
334.70797458246
 20
992.9401572415999
 30
0.0
 11
334.70797458246
 21
1004.596171426
 31
0.0
  0
LINE
  5
1974
330
A
100
AcDbEntity
  8
LEVEL001
  6
Continuous
 62
     5
100
AcDbLine
 10
334.70797458246
 20
1007.496171426
 30
0.0
 11
334.70797458246
 21
992.3401572415995
 31
0.0
  0
ARC
  5
1975
330
A
100
AcDbEntity
  8
LEVEL001
  6
Continuous
 62
     5
100
AcDbCircle
 10
353.50797458233
 20
992.3401572416997
 30
0.0
 40
18.8
100
AcDbArc
 50
180.000000000495
 51
219.0500668719215
  0
LINE
  5
1978
330
A
100
AcDbEntity
  8
LEVEL001
  6
DASHDOT
 62
     6
370
    15
100
AcDbLine
 10
361.40797458246
 20
821.2217272066
 30
0.0
 11
361.40797458246
 21
794.0470112057192
 31
0.0
  0
LINE
  5
197A
330
A
100
AcDbEntity
  8
LEVEL001
  6
DASHDOT
 62
     6
370
    15
100
AcDbLine
 10
343.30797458246
 20
737.8732614239997
 30
0.0
 11
343.30797458246
 21
797.0057505643999
 31
0.0
  0
LINE
  5
197B
330
A
100
AcDbEntity
  8
LEVEL001
  6
DASHDOT
 62
     6
370
    15
100
AcDbLine
 10
369.73780316733
 20
764.1160641402002
 30
0.0
 11
316.87814599759
 21
764.1160641402002
 31
0.0
  0
LINE
  5
197E
330
A
100
AcDbEntity
  8
LEVEL001
  6
DASHDOT
 62
     6
370
    15
100
AcDbLine
 10
361.40797458246
 20
1011.7018344924
 30
0.0
 11
361.40797458246
 21
983.7344465394853
 31
0.0
  0
LINE
  5
1980
330
A
100
AcDbEntity
  8
LEVEL001
  6
DASHDOT
 62
     6
370
    15
100
AcDbLine
 10
343.30797458246
 20
928.3533687097998
 30
0.0
 11
343.30797458246
 21
987.4858578501997
 31
0.0
  0
LINE
  5
1981
330
A
100
AcDbEntity
  8
LEVEL001
  6
DASHDOT
 62
     6
370
    15
100
AcDbLine
 10
369.73780316733
 20
954.5961714260002
 30
0.0
 11
316.87814599759
 21
954.5961714260002
 31
0.0
  0
LINE
  5
1982
330
A
100
AcDbEntity
  8
LEVEL001
  6
HIDDEN
 62
     2
370
    15
100
AcDbLine
 10
366.40797458246
 20
819.1160641401001
 30
0.0
 11
366.40797458246
 21
810.4160641401003
 31
0.0
  0
LINE
  5
1983
330
A
100
AcDbEntity
  8
LEVEL001
  6
HIDDEN
 62
     2
370
    15
100
AcDbLine
 10
356.40797458246
 20
819.1160641401001
 30
0.0
 11
356.40797458246
 21
810.4160641401003
 31
0.0
  0
ARC
  5
1984
330
A
100
AcDbEntity
  8
LEVEL001
  6
HIDDEN
 62
    15
370
    15
100
AcDbCircle
 10
373.40797458745
 20
810.8160641400999
 30
0.0
 40
0.5
100
AcDbArc
 50
269.9999994287
 51
0.0
  0
ARC
  5
1985
330
A
100
AcDbEntity
  8
LEVEL001
  6
HIDDEN
 62
    15
370
    15
100
AcDbCircle
 10
375.00797458246
 20
813.2160641400997
 30
0.0
 40
1.1
100
AcDbArc
 50
0.0
 51
180.0
  0
LINE
  5
1986
330
A
100
AcDbEntity
  8
LEVEL001
  6
HIDDEN
 62
    15
370
    15
100
AcDbLine
 10
373.90797458246
 20
813.2160641400997
 30
0.0
 11
373.90797458246
 21
810.8160641400999
 31
0.0
  0
LINE
  5
1987
330
A
100
AcDbEntity
  8
LEVEL001
  6
HIDDEN
 62
    15
370
    15
100
AcDbLine
 10
377.80797458246
 20
809.3160641401
 30
0.0
 11
376.40797458246
 21
809.3160641401
 31
0.0
  0
ARC
  5
1988
330
A
100
AcDbEntity
  8
LEVEL001
  6
HIDDEN
 62
    15
370
    15
100
AcDbCircle
 10
376.40797458246
 20
809.6160641423002
 30
0.0
 40
0.3
100
AcDbArc
 50
180.000000422275
 51
270.00000000004
  0
ARC
  5
1989
330
A
100
AcDbEntity
  8
LEVEL001
  6
HIDDEN
 62
    15
370
    15
100
AcDbCircle
 10
377.80797458576
 20
809.6160641401002
 30
0.0
 40
0.3
100
AcDbArc
 50
269.99999937019
 51
0.0
  0
LINE
  5
198A
330
A
100
AcDbEntity
  8
LEVEL001
  6
HIDDEN
 62
    15
370
    15
100
AcDbLine
 10
376.10797458246
 20
809.6160641401002
 30
0.0
 11
376.10797458246
 21
813.2160641400997
 31
0.0
  0
LINE
  5
198B
330
A
100
AcDbEntity
  8
LEVEL001
  6
HIDDEN
 62
    15
370
    15
100
AcDbLine
 10
378.10797458246
 20
810.3160641401
 30
0.0
 11
378.10797458246
 21
809.6160641401002
 31
0.0
  0
LINE
  5
198C
330
A
100
AcDbEntity
  8
LEVEL001
  6
HIDDEN
 62
    15
370
    15
100
AcDbLine
 10
378.10797458246
 20
810.3160641401
 30
0.0
 11
386.20797458246
 21
810.3160641401
 31
0.0
  0
LINE
  5
198D
330
A
100
AcDbEntity
  8
LEVEL001
  6
HIDDEN
 62
     2
100
AcDbLine
 10
386.20797458246
 20
810.3160641401
 30
0.0
 11
386.20797458246
 21
817.0160641400999
 31
0.0
  0
LINE
  5
198E
330
A
100
AcDbEntity
  8
LEVEL001
  6
HIDDEN
 62
    15
370
    15
100
AcDbLine
 10
360.90797458246
 20
810.3160641401
 30
0.0
 11
361.40797458246
 21
810.8160641400999
 31
0.0
  0
LINE
  5
198F
330
A
100
AcDbEntity
  8
LEVEL001
  6
HIDDEN
 62
    15
370
    15
100
AcDbLine
 10
347.19574486775
 20
810.3160641401
 30
0.0
 11
360.90797458246
 21
810.3160641401
 31
0.0
  0
LINE
  5
1990
330
A
100
AcDbEntity
  8
LEVEL001
  6
HIDDEN
 62
    15
370
    15
100
AcDbLine
 10
361.40797458246
 20
810.8160641400999
 30
0.0
 11
361.90797458246
 21
810.3160641401
 31
0.0
  0
LINE
  5
1991
330
A
100
AcDbEntity
  8
LEVEL001
  6
HIDDEN
 62
    15
370
    15
100
AcDbLine
 10
361.90797458246
 20
810.3160641401
 30
0.0
 11
373.40797458246
 21
810.3160641401
 31
0.0
  0
LINE
  5
1992
330
A
100
AcDbEntity
  8
LEVEL001
  6
HIDDEN
 62
    15
370
    15
100
AcDbLine
 10
338.90797458246
 20
790.6160641401002
 30
0.0
 11
338.90797458246
 21
790.0160641400998
 31
0.0
  0
ARC
  5
1993
330
A
100
AcDbEntity
  8
LEVEL001
  6
HIDDEN
 62
    15
370
    15
100
AcDbCircle
 10
353.50797458254
 20
802.4600499555999
 30
0.0
 40
18.8
100
AcDbArc
 50
179.8476174277017
 51
219.0500668709129
  0
LINE
  5
1994
330
A
100
AcDbEntity
  8
LEVEL001
  6
HIDDEN
 62
    15
370
    15
100
AcDbLine
 10
347.70797458246
 20
794.4138852140004
 30
0.0
 11
347.70797458246
 21
790.0160641400998
 31
0.0
  0
ARC
  5
1995
330
A
100
AcDbEntity
  8
LEVEL001
  6
HIDDEN
 62
    15
370
    15
100
AcDbCircle
 10
353.50797458245
 20
802.5600499557004
 30
0.0
 40
10.0
100
AcDbArc
 50
129.1404088973093
 51
234.5494573608595
  0
LWPOLYLINE
  5
1996
330
A
100
AcDbEntity
  8
LEVEL001
  6
HIDDEN
 62
    15
370
    15
100
AcDbPolyline
 90
        4
 70
     0
 43
0.0
 10
336.70797458246
 20
817.0160641400999
 10
336.70797458246
 20
815.1160641401002
 10
340.70797458246
 20
815.1160641401002
 10
340.70797458246
 20
817.0160641400999
  0
LINE
  5
199C
330
A
100
AcDbEntity
  8
LEVEL001
  6
HIDDEN
 62
     2
100
AcDbLine
 10
334.70797458246
 20
802.6112244859996
 30
0.0
 11
334.70797458246
 21
814.1160641401002
 31
0.0
  0
LINE
  5
199D
330
A
100
AcDbEntity
  8
LEVEL001
  6
HIDDEN
 62
     2
100
AcDbLine
 10
334.70797458246
 20
814.1160641401002
 30
0.0
 11
334.70797458246
 21
802.5600499557004
 31
0.0
  0
LINE
  5
19A2
330
A
100
AcDbEntity
  8
LEVEL001
  6
HIDDEN
 62
     2
370
    15
100
AcDbLine
 10
351.80797458246
 20
765.4260701074999
 30
0.0
 11
351.05797458246
 21
766.1760701074999
 31
0.0
  0
LINE
  5
19A3
330
A
100
AcDbEntity
  8
LEVEL001
  6
HIDDEN
 62
     2
370
    15
100
AcDbLine
 10
351.80797458246
 20
762.9260701075
 30
0.0
 11
351.80797458246
 21
765.4260701074999
 31
0.0
  0
LINE
  5
19A4
330
A
100
AcDbEntity
  8
LEVEL001
  6
HIDDEN
 62
     2
370
    15
100
AcDbLine
 10
351.05797458246
 20
762.1760701074999
 30
0.0
 11
351.80797458246
 21
762.9260701075
 31
0.0
  0
LINE
  5
19A5
330
A
100
AcDbEntity
  8
LEVEL001
  6
HIDDEN
 62
     2
370
    15
100
AcDbLine
 10
351.05797458246
 20
766.1760701074999
 30
0.0
 11
333.80797458246
 21
766.1760701074999
 31
0.0
  0
LINE
  5
19A6
330
A
100
AcDbEntity
  8
LEVEL001
  6
HIDDEN
 62
     2
370
    15
100
AcDbLine
 10
333.80797458246
 20
762.1760701074999
 30
0.0
 11
351.05797458246
 21
762.1760701074999
 31
0.0
  0
LINE
  5
19A7
330
A
100
AcDbEntity
  8
LEVEL001
  6
HIDDEN
 62
     2
370
    15
100
AcDbLine
 10
333.80797458246
 20
765.4260701074999
 30
0.0
 11
351.80797458246
 21
765.4260701074999
 31
0.0
  0
LINE
  5
19A8
330
A
100
AcDbEntity
  8
LEVEL001
  6
HIDDEN
 62
     2
370
    15
100
AcDbLine
 10
351.80797458246
 20
762.9260701075
 30
0.0
 11
333.80797458246
 21
762.9260701075
 31
0.0
  0
ARC
  5
19AA
330
A
100
AcDbEntity
  8
LEVEL001
  6
HIDDEN
 62
     2
370
    15
100
AcDbCircle
 10
333.3079745902
 20
767.6760701074999
 30
0.0
 40
0.5
100
AcDbArc
 50
0.0
 51
90.00000088700696
  0
ARC
  5
19AB
330
A
100
AcDbEntity
  8
LEVEL001
  6
HIDDEN
 62
     2
370
    15
100
AcDbCircle
 10
333.30797458246
 20
760.6760701109997
 30
0.0
 40
0.5
100
AcDbArc
 50
270.0
 51
0.0
  0
LINE
  5
19AC
330
A
100
AcDbEntity
  8
LEVEL001
  6
HIDDEN
 62
     2
370
    15
100
AcDbLine
 10
333.30797458246
 20
760.1760701075
 30
0.0
 11
332.57272239194
 21
760.1760701075
 31
0.0
  0
ARC
  5
19AD
330
A
100
AcDbEntity
  8
LEVEL001
  6
HIDDEN
 62
     2
370
    15
100
AcDbCircle
 10
338.07464124915
 20
764.1760701075
 30
0.0
 40
7.2666666666667
100
AcDbArc
 50
151.3979413175706
 51
208.6020586829039
  0
ARC
  5
19AE
330
A
100
AcDbEntity
  8
LEVEL001
  6
HIDDEN
 62
     2
370
    15
100
AcDbCircle
 10
332.57272239084
 20
761.1760701095
 30
0.0
 40
1.0
100
AcDbArc
 50
208.6020588139555
 51
270.00000006282
  0
ARC
  5
19AF
330
A
100
AcDbEntity
  8
LEVEL001
  6
HIDDEN
 62
     2
370
    15
100
AcDbCircle
 10
332.57272238978
 20
767.1760701035
 30
0.0
 40
1.0
100
AcDbArc
 50
89.999999876242
 51
151.39794105879
  0
LINE
  5
19B0
330
A
100
AcDbEntity
  8
LEVEL001
  6
HIDDEN
 62
     2
370
    15
100
AcDbLine
 10
333.30797458246
 20
768.1760701075
 30
0.0
 11
332.57272239194
 21
768.1760701075
 31
0.0
  0
LINE
  5
19BB
330
A
100
AcDbEntity
  8
LEVEL001
  6
HIDDEN
 62
     2
100
AcDbLine
 10
365.96072208246
 20
810.3160641401
 30
0.0
 11
356.85522558246
 21
810.3160641401
 31
0.0
  0
LINE
  5
19BC
330
A
100
AcDbEntity
  8
LEVEL001
  6
HIDDEN
 62
     2
370
    15
100
AcDbLine
 10
352.40797458246
 20
809.1160641401001
 30
0.0
 11
352.40797458246
 21
810.3160641401
 31
0.0
  0
LINE
  5
19BD
330
A
100
AcDbEntity
  8
LEVEL001
  6
HIDDEN
 62
     2
370
    15
100
AcDbLine
 10
368.90797458246
 20
803.6934144094002
 30
0.0
 11
368.90797458246
 21
809.1160641401001
 31
0.0
  0
LINE
  5
19BE
330
A
100
AcDbEntity
  8
LEVEL001
  6
HIDDEN
 62
     2
370
    15
100
AcDbLine
 10
368.90797458246
 20
809.1160641401001
 30
0.0
 11
353.90797458246
 21
809.1160641401001
 31
0.0
  0
LINE
  5
19BF
330
A
100
AcDbEntity
  8
LEVEL001
  6
HIDDEN
 62
     2
370
    15
100
AcDbLine
 10
353.90797458246
 20
809.1160641401001
 30
0.0
 11
353.90797458246
 21
803.6934144093002
 31
0.0
  0
ARC
  5
19C0
330
A
100
AcDbEntity
  8
LEVEL001
  6
HIDDEN
 62
     2
370
    15
100
AcDbCircle
 10
355.78436295718
 20
806.4538703836998
 30
0.0
 40
3.3378062436684
100
AcDbArc
 50
235.7945420621076
 51
304.2054579428566
  0
ARC
  5
19C1
330
A
100
AcDbEntity
  8
LEVEL001
  6
HIDDEN
 62
     2
370
    15
100
AcDbCircle
 10
361.40797458249
 20
815.5651926727996
 30
0.0
 40
12.449128532617
100
AcDbArc
 50
252.4821530352347
 51
287.5178469642868
  0
ARC
  5
19C2
330
A
100
AcDbEntity
  8
LEVEL001
  6
HIDDEN
 62
     2
370
    15
100
AcDbCircle
 10
367.03158620747
 20
806.4538703836998
 30
0.0
 40
3.337806243639
100
AcDbArc
 50
235.7945420603376
 51
304.2054579419763
  0
LINE
  5
19C3
330
A
100
AcDbEntity
  8
LEVEL001
  6
HIDDEN
 62
     2
370
    15
100
AcDbLine
 10
367.03158620755
 20
803.1160641401001
 30
0.0
 11
355.78436295734
 21
803.1160641401001
 31
0.0
  0
LINE
  5
19C4
330
A
100
AcDbEntity
  8
LEVEL001
  6
HIDDEN
 62
     2
370
    15
100
AcDbLine
 10
365.15519783264
 20
803.6934144094002
 30
0.0
 11
365.15519783264
 21
809.1160641401001
 31
0.0
  0
LINE
  5
19C5
330
A
100
AcDbEntity
  8
LEVEL001
  6
HIDDEN
 62
     2
370
    15
100
AcDbLine
 10
357.66075133223
 20
803.6934144094002
 30
0.0
 11
357.66075133223
 21
809.1160641401001
 31
0.0
  0
LINE
  5
19C7
330
A
100
AcDbEntity
  8
LEVEL001
  6
HIDDEN
 62
     2
370
    15
100
AcDbLine
 10
370.40797458246
 20
810.3160641401
 30
0.0
 11
370.40797458246
 21
809.1160641401001
 31
0.0
  0
LINE
  5
19C8
330
A
100
AcDbEntity
  8
LEVEL001
  6
HIDDEN
 62
     2
370
    15
100
AcDbLine
 10
370.40797458246
 20
809.1160641401001
 30
0.0
 11
368.90797458246
 21
809.1160641401001
 31
0.0
  0
LINE
  5
19C9
330
A
100
AcDbEntity
  8
LEVEL001
  6
HIDDEN
 62
     2
370
    15
100
AcDbLine
 10
353.90797458246
 20
809.1160641401001
 30
0.0
 11
352.40797458246
 21
809.1160641401001
 31
0.0
  0
LINE
  5
19CA
330
A
100
AcDbEntity
  8
LEVEL001
  6
HIDDEN
 62
     2
370
    15
100
AcDbLine
 10
357.40797558246
 20
810.3160641401
 30
0.0
 11
357.40797558246
 21
819.116064140101
 31
0.0
  0
LINE
  5
19CB
330
A
100
AcDbEntity
  8
LEVEL001
  6
HIDDEN
 62
     2
370
    15
100
AcDbLine
 10
365.40797358246
 20
810.3160641401
 30
0.0
 11
365.40797358246
 21
819.1160641401001
 31
0.0
  0
LINE
  5
19CC
330
A
100
AcDbEntity
  8
LEVEL001
  6
HIDDEN
 62
     2
370
    15
100
AcDbLine
 10
366.40797458246
 20
1009.596171426
 30
0.0
 11
366.40797458246
 21
1000.896171426
 31
0.0
  0
LINE
  5
19CD
330
A
100
AcDbEntity
  8
LEVEL001
  6
HIDDEN
 62
     2
370
    15
100
AcDbLine
 10
356.40797458246
 20
1009.596171426
 30
0.0
 11
356.40797458246
 21
1000.896171426
 31
0.0
  0
ARC
  5
19CE
330
A
100
AcDbEntity
  8
LEVEL001
  6
HIDDEN
 62
    15
370
    15
100
AcDbCircle
 10
373.40797458671
 20
1001.296171426
 30
0.0
 40
0.5
100
AcDbArc
 50
269.9999995136
 51
0.0
  0
ARC
  5
19CF
330
A
100
AcDbEntity
  8
LEVEL001
  6
HIDDEN
 62
    15
370
    15
100
AcDbCircle
 10
375.00797458246
 20
1003.696171425999
 30
0.0
 40
1.1
100
AcDbArc
 50
0.0
 51
180.0
  0
LINE
  5
19D0
330
A
100
AcDbEntity
  8
LEVEL001
  6
HIDDEN
 62
    15
370
    15
100
AcDbLine
 10
373.90797458246
 20
1003.696171425999
 30
0.0
 11
373.90797458246
 21
1001.296171426
 31
0.0
  0
LINE
  5
19D1
330
A
100
AcDbEntity
  8
LEVEL001
  6
HIDDEN
 62
    15
370
    15
100
AcDbLine
 10
377.80797458246
 20
999.796171426
 30
0.0
 11
376.40797458246
 21
999.796171426
 31
0.0
  0
ARC
  5
19D2
330
A
100
AcDbEntity
  8
LEVEL001
  6
HIDDEN
 62
    15
370
    15
100
AcDbCircle
 10
376.40797458246
 20
1000.0961714353
 30
0.0
 40
0.3
100
AcDbArc
 50
180.0000017917313
 51
270.00000000003
  0
ARC
  5
19D3
330
A
100
AcDbEntity
  8
LEVEL001
  6
HIDDEN
 62
    15
370
    15
100
AcDbCircle
 10
377.80797459293
 20
1000.096171426
 30
0.0
 40
0.3
100
AcDbArc
 50
269.99999800069
 51
0.0
  0
LINE
  5
19D4
330
A
100
AcDbEntity
  8
LEVEL001
  6
HIDDEN
 62
    15
370
    15
100
AcDbLine
 10
376.10797458246
 20
1000.096171426
 30
0.0
 11
376.10797458246
 21
1003.696171425999
 31
0.0
  0
LINE
  5
19D5
330
A
100
AcDbEntity
  8
LEVEL001
  6
HIDDEN
 62
    15
370
    15
100
AcDbLine
 10
378.10797458246
 20
1000.796171426
 30
0.0
 11
378.10797458246
 21
1000.096171426
 31
0.0
  0
LINE
  5
19D6
330
A
100
AcDbEntity
  8
LEVEL001
  6
HIDDEN
 62
    15
370
    15
100
AcDbLine
 10
378.10797458246
 20
1000.796171426
 30
0.0
 11
386.20797458246
 21
1000.796171426
 31
0.0
  0
LINE
  5
19D7
330
A
100
AcDbEntity
  8
LEVEL001
  6
HIDDEN
 62
     2
100
AcDbLine
 10
386.20797458246
 20
1000.796171426
 30
0.0
 11
386.20797458246
 21
1007.496171426
 31
0.0
  0
LINE
  5
19D8
330
A
100
AcDbEntity
  8
LEVEL001
  6
HIDDEN
 62
    15
370
    15
100
AcDbLine
 10
360.90797458246
 20
1000.796171426
 30
0.0
 11
361.40797458246
 21
1001.296171426
 31
0.0
  0
LINE
  5
19D9
330
A
100
AcDbEntity
  8
LEVEL001
  6
HIDDEN
 62
    15
370
    15
100
AcDbLine
 10
347.19574486775
 20
1000.796171426
 30
0.0
 11
360.90797458246
 21
1000.796171426
 31
0.0
  0
LINE
  5
19DA
330
A
100
AcDbEntity
  8
LEVEL001
  6
HIDDEN
 62
    15
370
    15
100
AcDbLine
 10
361.40797458246
 20
1001.296171426
 30
0.0
 11
361.90797458246
 21
1000.796171426
 31
0.0
  0
LINE
  5
19DB
330
A
100
AcDbEntity
  8
LEVEL001
  6
HIDDEN
 62
    15
370
    15
100
AcDbLine
 10
361.90797458246
 20
1000.796171426
 30
0.0
 11
373.40797458246
 21
1000.796171426
 31
0.0
  0
LINE
  5
19DC
330
A
100
AcDbEntity
  8
LEVEL001
  6
HIDDEN
 62
     2
100
AcDbLine
 10
338.90797458246
 20
981.0961714260001
 30
0.0
 11
338.90797458246
 21
980.4961714259999
 31
0.0
  0
ARC
  5
19DD
330
A
100
AcDbEntity
  8
LEVEL001
  6
HIDDEN
 62
    15
370
    15
100
AcDbCircle
 10
353.50797458246
 20
992.9401572415999
 30
0.0
 40
18.8
100
AcDbArc
 50
179.8476174280143
 51
219.0500668713134
  0
LINE
  5
19DE
330
A
100
AcDbEntity
  8
LEVEL001
  6
HIDDEN
 62
    15
370
    15
100
AcDbLine
 10
347.70797458246
 20
984.8939924998003
 30
0.0
 11
347.70797458246
 21
980.4961714259999
 31
0.0
  0
ARC
  5
19DF
330
A
100
AcDbEntity
  8
LEVEL001
  6
HIDDEN
 62
    15
370
    15
100
AcDbCircle
 10
353.50797458236
 20
993.0401572415004
 30
0.0
 40
10.0
100
AcDbArc
 50
129.140408896649
 51
234.5494573610392
  0
LWPOLYLINE
  5
19E0
330
A
100
AcDbEntity
  8
LEVEL001
  6
HIDDEN
 62
    15
370
    15
100
AcDbPolyline
 90
        4
 70
     0
 43
0.0
 10
336.70797458246
 20
1007.496171426
 10
336.70797458246
 20
1005.596171426
 10
340.70797458246
 20
1005.596171426
 10
340.70797458246
 20
1007.496171426
  0
LINE
  5
19E6
330
A
100
AcDbEntity
  8
LEVEL001
  6
HIDDEN
 62
     2
100
AcDbLine
 10
334.70797458246
 20
993.0913317717996
 30
0.0
 11
334.70797458246
 21
1004.596171426
 31
0.0
  0
LINE
  5
19E7
330
A
100
AcDbEntity
  8
LEVEL001
  6
HIDDEN
 62
     2
100
AcDbLine
 10
334.70797458246
 20
1004.596171426
 30
0.0
 11
334.70797458246
 21
993.0401572416004
 31
0.0
  0
LINE
  5
19EC
330
A
100
AcDbEntity
  8
LEVEL001
  6
HIDDEN
 62
     2
370
    15
100
AcDbLine
 10
351.80797458246
 20
955.9061773932999
 30
0.0
 11
351.05797458246
 21
956.6561773932999
 31
0.0
  0
LINE
  5
19ED
330
A
100
AcDbEntity
  8
LEVEL001
  6
HIDDEN
 62
     2
370
    15
100
AcDbLine
 10
351.80797458246
 20
953.4061773932998
 30
0.0
 11
351.80797458246
 21
955.9061773932999
 31
0.0
  0
LINE
  5
19EE
330
A
100
AcDbEntity
  8
LEVEL001
  6
HIDDEN
 62
     2
370
    15
100
AcDbLine
 10
351.05797458246
 20
952.6561773932998
 30
0.0
 11
351.80797458246
 21
953.4061773932998
 31
0.0
  0
LINE
  5
19EF
330
A
100
AcDbEntity
  8
LEVEL001
  6
HIDDEN
 62
     2
370
    15
100
AcDbLine
 10
351.05797458246
 20
956.6561773932999
 30
0.0
 11
333.80797458247
 21
956.6561773932999
 31
0.0
  0
LINE
  5
19F0
330
A
100
AcDbEntity
  8
LEVEL001
  6
HIDDEN
 62
     2
370
    15
100
AcDbLine
 10
333.80797458247
 20
952.6961714260997
 30
0.0
 11
351.05797458246
 21
952.6561773932998
 31
0.0
  0
LINE
  5
19F1
330
A
100
AcDbEntity
  8
LEVEL001
  6
HIDDEN
 62
     2
370
    15
100
AcDbLine
 10
333.80797458247
 20
955.9061773932999
 30
0.0
 11
351.80797458246
 21
955.9061773932999
 31
0.0
  0
LINE
  5
19F2
330
A
100
AcDbEntity
  8
LEVEL001
  6
HIDDEN
 62
     2
370
    15
100
AcDbLine
 10
351.80797458246
 20
953.4061773932998
 30
0.0
 11
333.80797458247
 21
953.4061773932998
 31
0.0
  0
ARC
  5
19F4
330
A
100
AcDbEntity
  8
LEVEL001
  6
HIDDEN
 62
     2
370
    15
100
AcDbCircle
 10
333.3079745835
 20
958.1561773933
 30
0.0
 40
0.5
100
AcDbArc
 50
0.0
 51
90.00000011821196
  0
ARC
  5
19F5
330
A
100
AcDbEntity
  8
LEVEL001
  6
HIDDEN
 62
     2
370
    15
100
AcDbCircle
 10
333.30797458246
 20
951.1561773961002
 30
0.0
 40
0.5
100
AcDbArc
 50
270.0
 51
0.0
  0
LINE
  5
19F6
330
A
100
AcDbEntity
  8
LEVEL001
  6
HIDDEN
 62
     2
370
    15
100
AcDbLine
 10
333.30797458246
 20
950.6561773932999
 30
0.0
 11
332.57272239194
 21
950.6561773932999
 31
0.0
  0
ARC
  5
19F7
330
A
100
AcDbEntity
  8
LEVEL001
  6
HIDDEN
 62
     2
370
    15
100
AcDbCircle
 10
338.07464124907
 20
954.6561773931998
 30
0.0
 40
7.2666666666667
100
AcDbArc
 50
151.3979413162656
 51
208.6020586822205
  0
ARC
  5
19F8
330
A
100
AcDbEntity
  8
LEVEL001
  6
HIDDEN
 62
     2
370
    15
100
AcDbCircle
 10
332.57272239016
 20
951.6561773965005
 30
0.0
 40
1.0
100
AcDbArc
 50
208.6020588956257
 51
270.00000010191
  0
ARC
  5
19F9
330
A
100
AcDbEntity
  8
LEVEL001
  6
HIDDEN
 62
     2
370
    15
100
AcDbCircle
 10
332.57272239046
 20
957.6561773905996
 30
0.0
 40
1.0
100
AcDbArc
 50
89.999999915347
 51
151.3979411404607
  0
LINE
  5
19FA
330
A
100
AcDbEntity
  8
LEVEL001
  6
HIDDEN
 62
     2
370
    15
100
AcDbLine
 10
333.30797458246
 20
958.6561773932999
 30
0.0
 11
332.57272239194
 21
958.6561773932999
 31
0.0
  0
LINE
  5
1A05
330
A
100
AcDbEntity
  8
LEVEL001
  6
HIDDEN
 62
     2
100
AcDbLine
 10
365.96072208246
 20
1000.796171426
 30
0.0
 11
356.85522558246
 21
1000.796171426
 31
0.0
  0
LINE
  5
1A06
330
A
100
AcDbEntity
  8
LEVEL001
  6
HIDDEN
 62
     2
370
    15
100
AcDbLine
 10
352.40797458246
 20
999.5961714260001
 30
0.0
 11
352.40797458246
 21
1000.796171426
 31
0.0
  0
LINE
  5
1A07
330
A
100
AcDbEntity
  8
LEVEL001
  6
HIDDEN
 62
     2
370
    15
100
AcDbLine
 10
368.90797458246
 20
994.1735216952002
 30
0.0
 11
368.90797458246
 21
999.5961714260001
 31
0.0
  0
LINE
  5
1A08
330
A
100
AcDbEntity
  8
LEVEL001
  6
HIDDEN
 62
     2
370
    15
100
AcDbLine
 10
368.90797458246
 20
999.5961714260001
 30
0.0
 11
353.90797458246
 21
999.5961714260001
 31
0.0
  0
LINE
  5
1A09
330
A
100
AcDbEntity
  8
LEVEL001
  6
HIDDEN
 62
     2
370
    15
100
AcDbLine
 10
353.90797458246
 20
999.5961714260001
 30
0.0
 11
353.90797458246
 21
994.1735216952002
 31
0.0
  0
ARC
  5
1A0A
330
A
100
AcDbEntity
  8
LEVEL001
  6
HIDDEN
 62
     2
370
    15
100
AcDbCircle
 10
355.78436295813
 20
996.9339776702
 30
0.0
 40
3.3378062436684
100
AcDbArc
 50
235.7945420548774
 51
304.2054579232011
  0
ARC
  5
1A0B
330
A
100
AcDbEntity
  8
LEVEL001
  6
HIDDEN
 62
     2
370
    15
100
AcDbCircle
 10
361.40797458249
 20
1006.045299958599
 30
0.0
 40
12.449128532617
100
AcDbArc
 50
252.4821530352347
 51
287.5178469642868
  0
ARC
  5
1A0C
330
A
100
AcDbEntity
  8
LEVEL001
  6
HIDDEN
 62
     2
370
    15
100
AcDbCircle
 10
367.03158620747
 20
996.9339776694996
 30
0.0
 40
3.337806243639
100
AcDbArc
 50
235.7945420603376
 51
304.2054579419763
  0
LINE
  5
1A0D
330
A
100
AcDbEntity
  8
LEVEL001
  6
HIDDEN
 62
     2
370
    15
100
AcDbLine
 10
367.03158620755
 20
993.5961714260001
 30
0.0
 11
355.78436295734
 21
993.5961714260001
 31
0.0
  0
LINE
  5
1A0E
330
A
100
AcDbEntity
  8
LEVEL001
  6
HIDDEN
 62
     2
370
    15
100
AcDbLine
 10
365.15519783264
 20
994.1735216952002
 30
0.0
 11
365.15519783264
 21
999.5961714260001
 31
0.0
  0
LINE
  5
1A0F
330
A
100
AcDbEntity
  8
LEVEL001
  6
HIDDEN
 62
     2
370
    15
100
AcDbLine
 10
357.66075133223
 20
994.1735216952002
 30
0.0
 11
357.66075133223
 21
999.5961714260001
 31
0.0
  0
LINE
  5
1A11
330
A
100
AcDbEntity
  8
LEVEL001
  6
HIDDEN
 62
     2
370
    15
100
AcDbLine
 10
370.40797458246
 20
1000.796171426
 30
0.0
 11
370.40797458246
 21
999.5961714260001
 31
0.0
  0
LINE
  5
1A12
330
A
100
AcDbEntity
  8
LEVEL001
  6
HIDDEN
 62
     2
370
    15
100
AcDbLine
 10
370.40797458246
 20
999.5961714260001
 30
0.0
 11
368.90797458246
 21
999.5961714260001
 31
0.0
  0
LINE
  5
1A13
330
A
100
AcDbEntity
  8
LEVEL001
  6
HIDDEN
 62
     2
370
    15
100
AcDbLine
 10
353.90797458246
 20
999.5961714260001
 30
0.0
 11
352.40797458246
 21
999.5961714260001
 31
0.0
  0
LINE
  5
1A14
330
A
100
AcDbEntity
  8
LEVEL001
  6
HIDDEN
 62
     2
370
    15
100
AcDbLine
 10
357.40797558246
 20
1000.796171426
 30
0.0
 11
357.40797558246
 21
1009.596171426001
 31
0.0
  0
LINE
  5
1A15
330
A
100
AcDbEntity
  8
LEVEL001
  6
HIDDEN
 62
     2
370
    15
100
AcDbLine
 10
365.40797358246
 20
1000.796171426
 30
0.0
 11
365.40797358246
 21
1009.596171426
 31
0.0
  0
LINE
  5
1A16
330
A
100
AcDbEntity
  8
LEVEL001
  6
Continuous
 62
     7
100
AcDbLine
 10
347.80797458246
 20
756.1160641401002
 30
0.0
 11
347.80797458246
 21
772.6160641401002
 31
0.0
  0
LINE
  5
1A17
330
A
100
AcDbEntity
  8
LEVEL001
  6
Continuous
 62
     7
100
AcDbLine
 10
338.80797458246
 20
756.1160641401002
 30
0.0
 11
338.80797458246
 21
772.6160641401002
 31
0.0
  0
ARC
  5
1A18
330
A
100
AcDbEntity
  8
LEVEL001
  6
Continuous
 62
     7
100
AcDbCircle
 10
339.30797458334
 20
779.1160641401002
 30
0.0
 40
1.5
100
AcDbArc
 50
0.0
 51
90.00000003346796
  0
LINE
  5
1A19
330
A
100
AcDbEntity
  8
LEVEL001
  6
Continuous
 62
     7
100
AcDbLine
 10
339.30797458246
 20
780.6160641401001
 30
0.0
 11
339.20797458246
 21
780.6160641401001
 31
0.0
  0
ARC
  5
1A1A
330
A
100
AcDbEntity
  8
LEVEL001
  6
Continuous
 62
     7
100
AcDbCircle
 10
339.20797458246
 20
780.9160641464996
 30
0.0
 40
0.3
100
AcDbArc
 50
180.0000012063513
 51
270.00000000003
  0
LINE
  5
1A1B
330
A
100
AcDbEntity
  8
LEVEL001
  6
Continuous
 62
     7
100
AcDbLine
 10
340.80797458246
 20
774.1160641401002
 30
0.0
 11
340.80797458246
 21
779.1160641401002
 31
0.0
  0
ARC
  5
1A1C
330
A
100
AcDbEntity
  8
LEVEL001
  6
Continuous
 62
     7
100
AcDbCircle
 10
339.30797458246
 20
774.1160641406004
 30
0.0
 40
1.5
100
AcDbArc
 50
270.0
 51
0.0
  0
LINE
  5
1A1D
330
A
100
AcDbEntity
  8
LEVEL001
  6
Continuous
 62
     7
100
AcDbLine
 10
338.90797458246
 20
772.6160641401002
 30
0.0
 11
339.30797458246
 21
772.6160641401002
 31
0.0
  0
LINE
  5
1A1E
330
A
100
AcDbEntity
  8
LEVEL001
  6
Continuous
 62
     7
100
AcDbLine
 10
338.90797458246
 20
780.9160641401003
 30
0.0
 11
338.90797458246
 21
790.2160641400996
 31
0.0
  0
ARC
  5
1A1F
330
A
100
AcDbEntity
  8
LEVEL001
  6
Continuous
 62
     7
100
AcDbCircle
 10
347.30797458246
 20
774.1160641417
 30
0.0
 40
1.5
100
AcDbArc
 50
180.0000000613597
 51
270.0
  0
LINE
  5
1A20
330
A
100
AcDbEntity
  8
LEVEL001
  6
Continuous
 62
     7
100
AcDbLine
 10
345.80797458246
 20
774.1160641401002
 30
0.0
 11
345.80797458246
 21
779.1160641401002
 31
0.0
  0
ARC
  5
1A21
330
A
100
AcDbEntity
  8
LEVEL001
  6
Continuous
 62
     7
100
AcDbCircle
 10
347.30797458049
 20
779.1160641401002
 30
0.0
 40
1.5
100
AcDbArc
 50
89.999999924822
 51
180.0
  0
ARC
  5
1A22
330
A
100
AcDbEntity
  8
LEVEL001
  6
Continuous
 62
     7
100
AcDbCircle
 10
347.40797458479
 20
780.9160641401003
 30
0.0
 40
0.3
100
AcDbArc
 50
269.99999955501
 51
0.0
  0
LINE
  5
1A23
330
A
100
AcDbEntity
  8
LEVEL001
  6
Continuous
 62
     7
100
AcDbLine
 10
347.30797458246
 20
780.6160641401001
 30
0.0
 11
347.40797458246
 21
780.6160641401001
 31
0.0
  0
LINE
  5
1A24
330
A
100
AcDbEntity
  8
LEVEL001
  6
Continuous
 62
     7
100
AcDbLine
 10
347.70797458246
 20
772.6160641401002
 30
0.0
 11
347.30797458246
 21
772.6160641401002
 31
0.0
  0
LINE
  5
1A25
330
A
100
AcDbEntity
  8
LEVEL001
  6
Continuous
 62
     7
100
AcDbLine
 10
347.70797458246
 20
780.9160641401003
 30
0.0
 11
347.70797458246
 21
790.0160641400998
 31
0.0
  0
LINE
  5
1A26
330
A
100
AcDbEntity
  8
LEVEL001
  6
Continuous
 62
     7
100
AcDbLine
 10
329.70797458246
 20
819.1160641401001
 30
0.0
 11
336.70797458246
 21
819.1160641401001
 31
0.0
  0
LINE
  5
1A27
330
A
100
AcDbEntity
  8
LEVEL001
  6
Continuous
 62
     7
100
AcDbLine
 10
329.70797458246
 20
819.1160641401001
 30
0.0
 11
329.70797458246
 21
818.4910641401001
 31
0.0
  0
LINE
  5
1A28
330
A
100
AcDbEntity
  8
LEVEL001
  6
Continuous
 62
     7
100
AcDbLine
 10
336.70797458246
 20
819.1160641401001
 30
0.0
 11
334.70797458246
 21
819.1160641401001
 31
0.0
  0
LINE
  5
1A29
330
A
100
AcDbEntity
  8
LEVEL001
  6
Continuous
 62
     7
100
AcDbLine
 10
330.20797458246
 20
817.4910641401002
 30
0.0
 11
334.70797458246
 21
814.1160641401002
 31
0.0
  0
ARC
  5
1A2A
330
A
100
AcDbEntity
  8
LEVEL001
  6
Continuous
 62
     7
100
AcDbCircle
 10
330.95797458246
 20
818.4910641385004
 30
0.0
 40
1.25
100
AcDbArc
 50
179.9999999245444
 51
233.1301023088805
  0
LINE
  5
1A2B
330
A
100
AcDbEntity
  8
LEVEL001
  6
Continuous
 62
     7
100
AcDbLine
 10
386.20797458246
 20
819.1160641401001
 30
0.0
 11
340.70797458246
 21
819.1160641401001
 31
0.0
  0
ARC
  5
1A2C
330
A
100
AcDbEntity
  8
LEVEL001
  6
Continuous
 62
     7
100
AcDbCircle
 10
353.50797458246
 20
802.5600499983001
 30
0.0
 40
18.8
100
AcDbArc
 50
180.0000001295981
 51
180.1523827015321
  0
LINE
  5
1A2D
330
A
100
AcDbEntity
  8
LEVEL001
  6
Continuous
 62
     7
100
AcDbLine
 10
386.20797458246
 20
817.0160641400999
 30
0.0
 11
386.20797458246
 21
819.1160641401001
 31
0.0
  0
LINE
  5
1A2E
330
A
100
AcDbEntity
  8
LEVEL001
  6
Continuous
 62
     7
100
AcDbLine
 10
336.70797458246
 20
819.1160641401001
 30
0.0
 11
336.70797458246
 21
817.0160641400999
 31
0.0
  0
LINE
  5
1A2F
330
A
100
AcDbEntity
  8
LEVEL001
  6
Continuous
 62
     7
100
AcDbLine
 10
340.70797458246
 20
817.0160641400999
 30
0.0
 11
340.70797458246
 21
819.1160641401001
 31
0.0
  0
LINE
  5
1A30
330
A
100
AcDbEntity
  8
LEVEL001
  6
Continuous
 62
     7
100
AcDbLine
 10
347.80797458246
 20
756.1160641401002
 30
0.0
 11
338.80797458246
 21
756.1160641401002
 31
0.0
  0
LINE
  5
1A31
330
A
100
AcDbEntity
  8
LEVEL001
  6
Continuous
 62
     7
100
AcDbLine
 10
347.80797458246
 20
946.5961714260002
 30
0.0
 11
347.80797458246
 21
963.0961714260001
 31
0.0
  0
LINE
  5
1A32
330
A
100
AcDbEntity
  8
LEVEL001
  6
Continuous
 62
     7
100
AcDbLine
 10
338.80797458246
 20
946.5961714260002
 30
0.0
 11
338.80797458246
 21
963.0961714260001
 31
0.0
  0
ARC
  5
1A33
330
A
100
AcDbEntity
  8
LEVEL001
  6
Continuous
 62
     7
100
AcDbCircle
 10
339.3079745816
 20
969.5961714260002
 30
0.0
 40
1.5
100
AcDbArc
 50
0.0
 51
89.99999996699299
  0
LINE
  5
1A34
330
A
100
AcDbEntity
  8
LEVEL001
  6
Continuous
 62
     7
100
AcDbLine
 10
339.30797458246
 20
971.0961714260001
 30
0.0
 11
339.20797458246
 21
971.0961714260001
 31
0.0
  0
ARC
  5
1A35
330
A
100
AcDbEntity
  8
LEVEL001
  6
Continuous
 62
     7
100
AcDbCircle
 10
339.20797458246
 20
971.3961714259003
 30
0.0
 40
0.3
100
AcDbArc
 50
179.9999999840282
 51
270.00000000003
  0
LINE
  5
1A36
330
A
100
AcDbEntity
  8
LEVEL001
  6
Continuous
 62
     7
100
AcDbLine
 10
340.80797458246
 20
964.5961714260002
 30
0.0
 11
340.80797458246
 21
969.5961714260002
 31
0.0
  0
ARC
  5
1A37
330
A
100
AcDbEntity
  8
LEVEL001
  6
Continuous
 62
     7
100
AcDbCircle
 10
339.30797458246
 20
964.5961714256999
 30
0.0
 40
1.5
100
AcDbArc
 50
270.0
 51
0.0
  0
LINE
  5
1A38
330
A
100
AcDbEntity
  8
LEVEL001
  6
Continuous
 62
     7
100
AcDbLine
 10
338.80797458246
 20
963.0961714260001
 30
0.0
 11
339.30797458246
 21
963.0961714260001
 31
0.0
  0
LINE
  5
1A39
330
A
100
AcDbEntity
  8
LEVEL001
  6
Continuous
 62
     7
100
AcDbLine
 10
338.90797458246
 20
971.3961714260003
 30
0.0
 11
338.90797458246
 21
980.6961714259996
 31
0.0
  0
ARC
  5
1A3A
330
A
100
AcDbEntity
  8
LEVEL001
  6
Continuous
 62
     7
100
AcDbCircle
 10
347.30797458246
 20
964.5961714267995
 30
0.0
 40
1.5
100
AcDbArc
 50
180.0000000330639
 51
270.0
  0
LINE
  5
1A3B
330
A
100
AcDbEntity
  8
LEVEL001
  6
Continuous
 62
     7
100
AcDbLine
 10
345.80797458246
 20
964.5961714260002
 30
0.0
 11
345.80797458246
 21
969.5961714260002
 31
0.0
  0
ARC
  5
1A3C
330
A
100
AcDbEntity
  8
LEVEL001
  6
Continuous
 62
     7
100
AcDbCircle
 10
347.30797458223
 20
969.5961714260002
 30
0.0
 40
1.5
100
AcDbArc
 50
89.99999999129299
 51
180.0
  0
ARC
  5
1A3D
330
A
100
AcDbEntity
  8
LEVEL001
  6
Continuous
 62
     7
100
AcDbCircle
 10
347.40797457839
 20
971.3961714260003
 30
0.0
 40
0.3
100
AcDbArc
 50
270.00000077785
 51
0.0
  0
LINE
  5
1A3E
330
A
100
AcDbEntity
  8
LEVEL001
  6
Continuous
 62
     7
100
AcDbLine
 10
347.30797458246
 20
971.0961714260001
 30
0.0
 11
347.40797458246
 21
971.0961714260001
 31
0.0
  0
LINE
  5
1A3F
330
A
100
AcDbEntity
  8
LEVEL001
  6
Continuous
 62
     7
100
AcDbLine
 10
347.80797458246
 20
963.0961714260001
 30
0.0
 11
347.30797458246
 21
963.0961714260001
 31
0.0
  0
LINE
  5
1A40
330
A
100
AcDbEntity
  8
LEVEL001
  6
Continuous
 62
     7
100
AcDbLine
 10
347.70797458246
 20
971.3961714260003
 30
0.0
 11
347.70797458246
 21
980.4961714259999
 31
0.0
  0
LINE
  5
1A41
330
A
100
AcDbEntity
  8
LEVEL001
  6
Continuous
 62
     7
100
AcDbLine
 10
329.70797458246
 20
1009.596171426
 30
0.0
 11
336.70797458246
 21
1009.596171426
 31
0.0
  0
LINE
  5
1A42
330
A
100
AcDbEntity
  8
LEVEL001
  6
Continuous
 62
     7
100
AcDbLine
 10
329.70797458246
 20
1009.596171426
 30
0.0
 11
329.70797458246
 21
1008.971171426
 31
0.0
  0
LINE
  5
1A43
330
A
100
AcDbEntity
  8
LEVEL001
  6
Continuous
 62
     7
100
AcDbLine
 10
336.70797458246
 20
1009.596171426
 30
0.0
 11
334.70797458246
 21
1009.596171426
 31
0.0
  0
LINE
  5
1A44
330
A
100
AcDbEntity
  8
LEVEL001
  6
Continuous
 62
     7
100
AcDbLine
 10
330.20797458246
 20
1007.971171426
 30
0.0
 11
334.70797458246
 21
1004.596171426
 31
0.0
  0
ARC
  5
1A45
330
A
100
AcDbEntity
  8
LEVEL001
  6
Continuous
 62
     7
100
AcDbCircle
 10
330.95797458246
 20
1008.9711714273
 30
0.0
 40
1.25
100
AcDbArc
 50
180.0000000612816
 51
233.1301023909147
  0
LINE
  5
1A46
330
A
100
AcDbEntity
  8
LEVEL001
  6
Continuous
 62
     7
100
AcDbLine
 10
386.20797458246
 20
1009.596171426
 30
0.0
 11
340.70797458246
 21
1009.596171426
 31
0.0
  0
ARC
  5
1A47
330
A
100
AcDbEntity
  8
LEVEL001
  6
Continuous
 62
     7
100
AcDbCircle
 10
353.50797458246
 20
993.0401572329001
 30
0.0
 40
18.8
100
AcDbArc
 50
179.9999999736582
 51
180.1523825456178
  0
LINE
  5
1A48
330
A
100
AcDbEntity
  8
LEVEL001
  6
Continuous
 62
     7
100
AcDbLine
 10
386.20797458246
 20
1007.496171426
 30
0.0
 11
386.20797458246
 21
1009.596171426
 31
0.0
  0
LINE
  5
1A49
330
A
100
AcDbEntity
  8
LEVEL001
  6
Continuous
 62
     7
100
AcDbLine
 10
336.70797458246
 20
1009.596171426
 30
0.0
 11
336.70797458246
 21
1007.496171426
 31
0.0
  0
LINE
  5
1A4A
330
A
100
AcDbEntity
  8
LEVEL001
  6
Continuous
 62
     7
100
AcDbLine
 10
340.70797458246
 20
1007.496171426
 30
0.0
 11
340.70797458246
 21
1009.596171426
 31
0.0
  0
LINE
  5
1A4B
330
A
100
AcDbEntity
  8
LEVEL001
  6
Continuous
 62
     7
100
AcDbLine
 10
347.80797458246
 20
946.5961714260002
 30
0.0
 11
338.80797458246
 21
946.5961714260002
 31
0.0
  0
LINE
  5
1A4C
330
A
100
AcDbEntity
  8
LEVEL001
  6
Continuous
 62
     3
370
    30
100
AcDbLine
 10
243.30797458246
 20
682.1164782656997
 30
0.0
 11
243.30797458246
 21
205.3483984369004
 31
0.0
  0
LWPOLYLINE
  5
1A4D
330
A
100
AcDbEntity
  8
LEVEL001
  6
Continuous
 62
     3
370
    30
100
AcDbPolyline
 90
        3
 70
     0
 43
0.0
 10
243.30797458246
 20
178.1372390400001
 10
243.30797458246
 20
78.48672740189977
 10
633.18440666102
 20
78.48672740189977
  0
LWPOLYLINE
  5
29D1
330
A
100
AcDbEntity
  8
LEVEL001
  6
Continuous
 62
     8
100
AcDbPolyline
 90
        5
 70
     0
 43
0.0
 10
73.08749541294701
 20
986.9006241386996
 10
73.08749541294701
 20
960.1668535031004
 10
198.16335088641
 20
960.1668535031004
 10
198.16335088641
 20
986.9006241386996
 10
73.08749541294701
 20
986.9006241386996
  0
LWPOLYLINE
  5
29D8
330
A
100
AcDbEntity
  8
LEVEL001
  6
Continuous
 62
     8
100
AcDbPolyline
 90
        5
 70
     0
 43
0.0
 10
73.24662500006301
 20
787.7629533150002
 10
73.24662500006301
 20
774.3960679971997
 10
198.32248047353
 20
774.3960679971997
 10
198.32248047353
 20
787.7629533150002
 10
73.24662500006301
 20
787.7629533150002
  0
TEXT
  5
29DF
330
A
100
AcDbEntity
  8
LEVEL001
 62
     8
100
AcDbText
 10
86.284552736796
 20
776.5795106560999
 30
0.0
 40
9.0
  1
笠木(%%c３４用)ＧＳＫ３
 41
0.8
 11
86.284552736796
 21
781.0795106560999
 31
0.0
100
AcDbText
 73
     2
  0
TEXT
  5
29E0
330
A
100
AcDbEntity
  8
LEVEL001
 62
     8
100
AcDbText
 10
81.62542314968
 20
973.5337388209
 30
0.0
 40
9.0
  1
　　笠木(%%c３４用)
 41
0.8
100
AcDbText
  0
TEXT
  5
29E1
330
A
100
AcDbEntity
  8
LEVEL001
 62
     8
100
AcDbText
 10
81.62542314968
 20
961.5337388208999
 30
0.0
 40
9.0
  1
ＧＳＫ３Ｆ(スリムタイプ)
 41
0.8
100
AcDbText
  0
TEXT
  5
2C33
330
A
100
AcDbEntity
  8
LEVEL001
 62
     8
100
AcDbText
 10
1268.8000000001
 20
1936.1666666667
 30
0.0
 40
8.0
  1

 41
0.5
100
AcDbText
  0
TEXT
  5
2C3A
330
A
100
AcDbEntity
  8
LEVEL001
 62
     8
100
AcDbText
 10
1268.8000000001
 20
1861.5
 30
0.0
 40
8.0
  1

 41
0.5
100
AcDbText
  0
TEXT
  5
2C42
330
A
100
AcDbEntity
  8
LEVEL001
 62
     8
100
AcDbText
 10
1268.8000000001
 20
1776.1666666667
 30
0.0
 40
8.0
  1

 41
0.5
100
AcDbText
  0
TEXT
  5
2C4B
330
A
100
AcDbEntity
  8
LEVEL001
 62
     8
100
AcDbText
 10
1268.8000000001
 20
1680.1666666667
 30
0.0
 40
8.0
  1

 41
0.5
100
AcDbText
  0
TEXT
  5
2C52
330
A
100
AcDbEntity
  8
LEVEL001
 62
     8
100
AcDbText
 10
1268.8000000001
 20
1605.5
 30
0.0
 40
8.0
  1

 41
0.5
100
AcDbText
  0
TEXT
  5
2C5A
330
A
100
AcDbEntity
  8
LEVEL001
 62
     8
100
AcDbText
 10
1268.8000000001
 20
1520.1666666667
 30
0.0
 40
8.0
  1

 41
0.5
100
AcDbText
  0
TEXT
  5
2C5B
330
A
100
AcDbEntity
  8
LEVEL001
 62
     8
100
AcDbText
 10
1268.8000000001
 20
1509.5
 30
0.0
 40
8.0
  1

 41
0.5
100
AcDbText
  0
TEXT
  5
2C5C
330
A
100
AcDbEntity
  8
LEVEL001
 62
     8
100
AcDbText
 10
1268.8000000001
 20
1498.8333333333
 30
0.0
 40
8.0
  1
 
 41
0.5
100
AcDbText
  0
TEXT
  5
2C69
330
A
100
AcDbEntity
  8
LEVEL001
 62
     8
100
AcDbText
 10
1268.8000000001
 20
748.16666666668
 30
0.0
 40
8.0
  1

 41
0.5
100
AcDbText
  0
TEXT
  5
2C70
330
A
100
AcDbEntity
  8
LEVEL001
 62
     8
100
AcDbText
 10
1268.8000000001
 20
673.5000000000099
 30
0.0
 40
8.0
  1

 41
0.5
100
AcDbText
  0
TEXT
  5
2C78
330
A
100
AcDbEntity
  8
LEVEL001
 62
     8
100
AcDbText
 10
1268.8000000001
 20
588.16666666668
 30
0.0
 40
8.0
  1

 41
0.5
100
AcDbText
  0
TEXT
  5
2C81
330
A
100
AcDbEntity
  8
LEVEL001
 62
     8
100
AcDbText
 10
1268.8000000001
 20
492.16666666668
 30
0.0
 40
8.0
  1

 41
0.5
100
AcDbText
  0
TEXT
  5
2C88
330
A
100
AcDbEntity
  8
LEVEL001
 62
     8
100
AcDbText
 10
1268.8000000001
 20
417.50000000001
 30
0.0
 40
8.0
  1

 41
0.5
100
AcDbText
  0
TEXT
  5
2C90
330
A
100
AcDbEntity
  8
LEVEL001
 62
     8
100
AcDbText
 10
1268.8000000001
 20
332.16666666668
 30
0.0
 40
8.0
  1

 41
0.5
100
AcDbText
  0
TEXT
  5
2C91
330
A
100
AcDbEntity
  8
LEVEL001
 62
     8
100
AcDbText
 10
1268.8000000001
 20
321.50000000001
 30
0.0
 40
8.0
  1

 41
0.5
100
AcDbText
  0
TEXT
  5
2C92
330
A
100
AcDbEntity
  8
LEVEL001
 62
     8
100
AcDbText
 10
1268.8000000001
 20
310.83333333334
 30
0.0
 40
8.0
  1
 
 41
0.5
100
AcDbText
  0
TEXT
  5
2C9F
330
A
100
AcDbEntity
  8
LEVEL001
 62
     8
100
AcDbText
 10
1268.8000000001
 20
3124.1666666667
 30
0.0
 40
8.0
  1

 41
0.5
100
AcDbText
  0
TEXT
  5
2CA6
330
A
100
AcDbEntity
  8
LEVEL001
 62
     8
100
AcDbText
 10
1268.8000000001
 20
3049.5
 30
0.0
 40
8.0
  1

 41
0.5
100
AcDbText
  0
TEXT
  5
2CAE
330
A
100
AcDbEntity
  8
LEVEL001
 62
     8
100
AcDbText
 10
1268.8000000001
 20
2964.166666666701
 30
0.0
 40
8.0
  1

 41
0.5
100
AcDbText
  0
TEXT
  5
2CB7
330
A
100
AcDbEntity
  8
LEVEL001
 62
     8
100
AcDbText
 10
1268.8000000001
 20
2868.1666666667
 30
0.0
 40
8.0
  1

 41
0.5
100
AcDbText
  0
TEXT
  5
2CBE
330
A
100
AcDbEntity
  8
LEVEL001
 62
     8
100
AcDbText
 10
1268.8000000001
 20
2793.5
 30
0.0
 40
8.0
  1

 41
0.5
100
AcDbText
  0
TEXT
  5
2CC6
330
A
100
AcDbEntity
  8
LEVEL001
 62
     8
100
AcDbText
 10
1268.8000000001
 20
2708.1666666667
 30
0.0
 40
8.0
  1

 41
0.5
100
AcDbText
  0
TEXT
  5
2CC7
330
A
100
AcDbEntity
  8
LEVEL001
 62
     8
100
AcDbText
 10
1268.8000000001
 20
2697.5
 30
0.0
 40
8.0
  1

 41
0.5
100
AcDbText
  0
TEXT
  5
2CC8
330
A
100
AcDbEntity
  8
LEVEL001
 62
     8
100
AcDbText
 10
1268.8000000001
 20
2686.8333333333
 30
0.0
 40
8.0
  1
 
 41
0.5
100
AcDbText
  0
TEXT
  5
2CD5
330
A
100
AcDbEntity
  8
LEVEL001
 62
     8
100
AcDbText
 10
1268.8000000001
 20
4312.1666666667
 30
0.0
 40
8.0
  1

 41
0.5
100
AcDbText
  0
TEXT
  5
2CDC
330
A
100
AcDbEntity
  8
LEVEL001
 62
     8
100
AcDbText
 10
1268.8000000001
 20
4237.499999999999
 30
0.0
 40
8.0
  1

 41
0.5
100
AcDbText
  0
TEXT
  5
2CE4
330
A
100
AcDbEntity
  8
LEVEL001
 62
     8
100
AcDbText
 10
1268.8000000001
 20
4152.166666666699
 30
0.0
 40
8.0
  1

 41
0.5
100
AcDbText
  0
TEXT
  5
2CED
330
A
100
AcDbEntity
  8
LEVEL001
 62
     8
100
AcDbText
 10
1268.8000000001
 20
4056.1666666667
 30
0.0
 40
8.0
  1

 41
0.5
100
AcDbText
  0
TEXT
  5
2CF4
330
A
100
AcDbEntity
  8
LEVEL001
 62
     8
100
AcDbText
 10
1268.8000000001
 20
3981.5
 30
0.0
 40
8.0
  1

 41
0.5
100
AcDbText
  0
TEXT
  5
2CFC
330
A
100
AcDbEntity
  8
LEVEL001
 62
     8
100
AcDbText
 10
1268.8000000001
 20
3896.1666666667
 30
0.0
 40
8.0
  1

 41
0.5
100
AcDbText
  0
TEXT
  5
2CFD
330
A
100
AcDbEntity
  8
LEVEL001
 62
     8
100
AcDbText
 10
1268.8000000001
 20
3885.5
 30
0.0
 40
8.0
  1

 41
0.5
100
AcDbText
  0
TEXT
  5
2CFE
330
A
100
AcDbEntity
  8
LEVEL001
 62
     8
100
AcDbText
 10
1268.8000000001
 20
3874.8333333333
 30
0.0
 40
8.0
  1
 
 41
0.5
100
AcDbText
  0
TEXT
  5
2D08
330
A
100
AcDbEntity
  8
LEVEL001
 62
     8
100
AcDbText
 10
1268.8000000001
 20
833.5
 30
0.0
 40
8.0
  1
(３４%%c用)
 41
0.8
100
AcDbText
  0
TEXT
  5
2D09
330
A
100
AcDbEntity
  8
LEVEL001
 62
     8
100
AcDbText
 10
1268.8000000001
 20
822.8333333333003
 30
0.0
 40
8.0
  1
・屋内用
 41
0.8
100
AcDbText
  0
TEXT
  5
2D0A
330
A
100
AcDbEntity
  8
LEVEL001
 62
     8
100
AcDbText
 10
1268.8000000001
 20
812.1666666666996
 30
0.0
 40
8.0
  1
 標準色　
 41
0.8
100
AcDbText
  0
TEXT
  5
2D0B
330
A
100
AcDbEntity
  8
LEVEL001
 62
     8
100
AcDbText
 10
1268.8000000001
 20
801.5
 30
0.0
 40
8.0
  1
　笠木(ＧＳＫ３Ｃ)･･･特殊樹脂
 41
0.8
100
AcDbText
  0
TEXT
  5
2D0C
330
A
100
AcDbEntity
  8
LEVEL001
 62
     8
100
AcDbText
 10
1268.8000000001
 20
790.8333333333002
 30
0.0
 40
8.0
  1
　　　(ＧＳＫ３ＦＣ･スリムタイプ)･･･特殊樹脂　　　　　　
 41
0.8
100
AcDbText
  0
TEXT
  5
2D0D
330
A
100
AcDbEntity
  8
LEVEL001
 62
     8
100
AcDbText
 10
1268.8000000001
 20
780.1666666666997
 30
0.0
 40
8.0
  1
　笠木受(ＳＫ３Ａ)･･･アルミ
 41
0.8
100
AcDbText
  0
TEXT
  5
2D0E
330
A
100
AcDbEntity
  8
LEVEL001
 62
     8
100
AcDbText
 10
1268.8000000001
 20
769.5
 30
0.0
 40
8.0
  1
　アールエンドキャップ(ＲＣ３４)･･･ＡＳＡ
 41
0.8
100
AcDbText
  0
TEXT
  5
2D0F
330
A
100
AcDbEntity
  8
LEVEL001
 62
     8
100
AcDbText
 10
1268.8000000001
 20
758.8333333333003
 30
0.0
 40
8.0
  1
　　(エンドキャップ･･･ＡＳＡ)有
 41
0.8
100
AcDbText
  0
TEXT
  5
2D10
330
A
100
AcDbEntity
  8
LEVEL001
 62
     8
100
AcDbText
 10
1268.8000000001
 20
7876.1666666667
 30
0.0
 40
8.0
  1

 41
0.5
100
AcDbText
  0
TEXT
  5
2D11
330
A
100
AcDbEntity
  8
LEVEL001
 62
     8
100
AcDbText
 10
1268.8000000001
 20
737.5
 30
0.0
 40
8.0
  1
木目色　
 41
0.8
100
AcDbText
  0
TEXT
  5
2D12
330
A
100
AcDbEntity
  8
LEVEL001
 62
     8
100
AcDbText
 10
1268.8000000001
 20
726.8333333333003
 30
0.0
 40
8.0
  1
　笠木(ＧＳＫ３Ｍ)･･･特殊樹脂(耐候性樹脂)　
 41
0.8
100
AcDbText
  0
TEXT
  5
2D13
330
A
100
AcDbEntity
  8
LEVEL001
 62
     8
100
AcDbText
 10
1268.8000000001
 20
716.1666666666997
 30
0.0
 40
8.0
  1
　　　(ＧＳＫ３ＦＭ･スリムタイプ)･･･特殊樹脂(耐候性樹脂)　　　　　　
 41
0.8
100
AcDbText
  0
TEXT
  5
2D14
330
A
100
AcDbEntity
  8
LEVEL001
 62
     8
100
AcDbText
 10
1268.8000000001
 20
705.4999999999999
 30
0.0
 40
8.0
  1
　笠木受(ＳＫ３Ａ)･･･アルミ
 41
0.8
100
AcDbText
  0
TEXT
  5
2D15
330
A
100
AcDbEntity
  8
LEVEL001
 62
     8
100
AcDbText
 10
1268.8000000001
 20
694.8333333333002
 30
0.0
 40
8.0
  1
　アールエンドキャップ(ＲＣ３４Ｍ)･･･ＡＳＡ
 41
0.8
100
AcDbText
  0
TEXT
  5
2D16
330
A
100
AcDbEntity
  8
LEVEL001
 62
     8
100
AcDbText
 10
1268.8000000001
 20
684.1666666666997
 30
0.0
 40
8.0
  1
　　(エンドキャップ･･･ＡＳＡ)有
 41
0.8
100
AcDbText
  0
TEXT
  5
2D17
330
A
100
AcDbEntity
  8
LEVEL001
 62
     8
100
AcDbText
 10
1268.8000000001
 20
7801.5
 30
0.0
 40
8.0
  1

 41
0.5
100
AcDbText
  0
TEXT
  5
2D18
330
A
100
AcDbEntity
  8
LEVEL001
 62
     8
100
AcDbText
 10
1268.8000000001
 20
662.8333333333003
 30
0.0
 40
8.0
  1
・屋外用
 41
0.8
100
AcDbText
  0
TEXT
  5
2D19
330
A
100
AcDbEntity
  8
LEVEL001
 62
     8
100
AcDbText
 10
1268.8000000001
 20
652.1666666666996
 30
0.0
 40
8.0
  1
 標準色
 41
0.8
100
AcDbText
  0
TEXT
  5
2D1A
330
A
100
AcDbEntity
  8
LEVEL001
 62
     8
100
AcDbText
 10
1268.8000000001
 20
641.5
 30
0.0
 40
8.0
  1
　笠木(ＧＳＫ３Ｇ)･･･特殊樹脂(耐候性樹脂)
 41
0.8
100
AcDbText
  0
TEXT
  5
2D1B
330
A
100
AcDbEntity
  8
LEVEL001
 62
     8
100
AcDbText
 10
1268.8000000001
 20
630.8333333333003
 30
0.0
 40
8.0
  1
　　　(ＧＳＫ３ＦＧ･スリムタイプ)･･･特殊樹脂(耐候性樹脂)　　　　　　
 41
0.8
100
AcDbText
  0
TEXT
  5
2D1C
330
A
100
AcDbEntity
  8
LEVEL001
 62
     8
100
AcDbText
 10
1268.8000000001
 20
620.1666666666997
 30
0.0
 40
8.0
  1
　笠木受(ＳＫ３Ａ)･･･アルミ
 41
0.8
100
AcDbText
  0
TEXT
  5
2D1D
330
A
100
AcDbEntity
  8
LEVEL001
 62
     8
100
AcDbText
 10
1268.8000000001
 20
609.4999999999999
 30
0.0
 40
8.0
  1
　アールエンドキャップ(ＲＣ３４)･･･ＡＳＡ
 41
0.8
100
AcDbText
  0
TEXT
  5
2D1E
330
A
100
AcDbEntity
  8
LEVEL001
 62
     8
100
AcDbText
 10
1268.8000000001
 20
598.8333333333002
 30
0.0
 40
8.0
  1
　　(エンドキャップ･･･ＡＳＡ)有
 41
0.8
100
AcDbText
  0
TEXT
  5
2D1F
330
A
100
AcDbEntity
  8
LEVEL001
 62
     8
100
AcDbText
 10
1268.8000000001
 20
7716.1666666667
 30
0.0
 40
8.0
  1

 41
0.5
100
AcDbText
  0
TEXT
  5
2D28
330
A
100
AcDbEntity
  8
LEVEL001
 62
     8
100
AcDbText
 10
1268.8000000001
 20
7620.166666666699
 30
0.0
 40
8.0
  1

 41
0.5
100
AcDbText
  0
TEXT
  5
2D2F
330
A
100
AcDbEntity
  8
LEVEL001
 62
     8
100
AcDbText
 10
1268.8000000001
 20
7545.5
 30
0.0
 40
8.0
  1

 41
0.5
100
AcDbText
  0
TEXT
  5
2D37
330
A
100
AcDbEntity
  8
LEVEL001
 62
     8
100
AcDbText
 10
1268.8000000001
 20
7460.1666666667
 30
0.0
 40
8.0
  1

 41
0.5
100
AcDbText
  0
TEXT
  5
2D38
330
A
100
AcDbEntity
  8
LEVEL001
 62
     8
100
AcDbText
 10
1268.8000000001
 20
7449.5
 30
0.0
 40
8.0
  1

 41
0.5
100
AcDbText
  0
TEXT
  5
2D39
330
A
100
AcDbEntity
  8
LEVEL001
 62
     8
100
AcDbText
 10
1268.8000000001
 20
7438.833333333301
 30
0.0
 40
8.0
  1
 
 41
0.5
100
AcDbText
  0
TEXT
  5
2D3A
330
A
100
AcDbEntity
  8
LEVEL001
 62
     8
100
AcDbText
 10
1276.7858875373
 20
308.8270360248998
 30
0.0
 40
12.0
  1
※カラーバリエーションはカタログ参照願います
 41
0.8
100
AcDbText
  0
TEXT
  5
2D3B
330
A
100
AcDbEntity
  8
LEVEL001
 62
     8
100
AcDbText
 10
1276.7858875373
 20
292.8270360248998
 30
0.0
 40
12.0
  1
※本製品は予告無しに変更する事があります。
 41
0.8
100
AcDbText
  0
LINE
  5
2D3C
330
A
100
AcDbEntity
  8
LEVEL001
  6
Continuous
 62
     3
100
AcDbLine
 10
1268.0000000001
 20
333.3836096905998
 30
0.0
 11
1618.0000000001
 21
333.3836096905998
 31
0.0
  0
TEXT
  5
2D49
330
A
100
AcDbEntity
  8
LEVEL001
 62
     8
100
AcDbText
 10
1268.8000000001
 20
5500.1666666667
 30
0.0
 40
8.0
  1

 41
0.5
100
AcDbText
  0
TEXT
  5
2D50
330
A
100
AcDbEntity
  8
LEVEL001
 62
     8
100
AcDbText
 10
1268.8000000001
 20
5425.5
 30
0.0
 40
8.0
  1

 41
0.5
100
AcDbText
  0
TEXT
  5
2D60
330
A
100
AcDbEntity
  8
LEVEL001
 62
     8
100
AcDbText
 10
1268.8000000001
 20
6688.1666666667
 30
0.0
 40
8.0
  1

 41
0.5
100
AcDbText
  0
TEXT
  5
2D67
330
A
100
AcDbEntity
  8
LEVEL001
 62
     8
100
AcDbText
 10
1268.8000000001
 20
6613.500000000001
 30
0.0
 40
8.0
  1

 41
0.5
100
AcDbText
  0
TEXT
  5
2D6F
330
A
100
AcDbEntity
  8
LEVEL001
 62
     8
100
AcDbText
 10
1268.8000000001
 20
6528.166666666699
 30
0.0
 40
8.0
  1

 41
0.5
100
AcDbText
  0
TEXT
  5
2D70
330
A
100
AcDbEntity
  8
LEVEL001
 62
     8
100
AcDbText
 10
1268.8000000001
 20
6517.5
 30
0.0
 40
8.0
  1

 41
0.5
100
AcDbText
  0
TEXT
  5
2D71
330
A
100
AcDbEntity
  8
LEVEL001
 62
     8
100
AcDbText
 10
1268.8000000001
 20
6506.8333333333
 30
0.0
 40
8.0
  1
 
 41
0.5
100
AcDbText
  0
LWPOLYLINE
  5
3283
330
A
100
AcDbEntity
  8
LEVEL001
  6
Continuous
 62
     6
370
    15
100
AcDbPolyline
 90
        3
 70
     0
 43
0.0
 10
349.268523548
 20
651.0923121943997
 10
371.22840657006
 20
681.6451929206996
 10
458.22840657006
 20
681.6451929206996
  0
CIRCLE
  5
3288
330
A
100
AcDbEntity
  8
LEVEL001
  6
Continuous
 62
     6
370
    15
100
AcDbCircle
 10
349.268523548
 20
651.0923121943997
 30
0.0
 40
0.8
  0
TEXT
  5
3289
330
A
100
AcDbEntity
  8
LEVEL001
 62
     6
370
    15
100
AcDbText
 10
371.22840657006
 20
699.6451929206996
 30
0.0
 40
12.0
  1
 　アール
 41
0.8
100
AcDbText
  0
TEXT
  5
328A
330
A
100
AcDbEntity
  8
LEVEL001
 62
     6
370
    15
100
AcDbText
 10
371.22840657006
 20
683.6451929206996
 30
0.0
 40
12.0
  1
　 エンドキャップ
 41
0.8
100
AcDbText
  0
LINE
  5
328B
330
A
100
AcDbEntity
  8
LEVEL001
  6
Continuous
 62
     6
370
    15
100
AcDbLine
 10
409.6525047603799
 20
531.0802737308003
 30
0.0
 11
409.6525047603799
 21
499.0802737308004
 31
0.0
  0
LINE
  5
328C
330
A
100
AcDbEntity
  8
LEVEL001
  6
Continuous
 62
     6
370
    15
100
AcDbLine
 10
387.70797458246
 20
531.0802737308003
 30
0.0
 11
413.6525047603799
 21
531.0802737308003
 31
0.0
  0
LINE
  5
328D
330
A
100
AcDbEntity
  8
LEVEL001
  6
Continuous
 62
     6
370
    15
100
AcDbLine
 10
387.70797458246
 20
499.0802737308004
 30
0.0
 11
413.6525047603799
 21
499.0802737308004
 31
0.0
  0
CIRCLE
  5
328E
330
A
100
AcDbEntity
  8
LEVEL001
  6
Continuous
 62
     6
370
    15
100
AcDbCircle
 10
409.6525047603799
 20
531.0802737308003
 30
0.0
 40
0.8
  0
CIRCLE
  5
328F
330
A
100
AcDbEntity
  8
LEVEL001
  6
Continuous
 62
     6
370
    15
100
AcDbCircle
 10
409.6525047603799
 20
499.0802737308004
 30
0.0
 40
0.8
  0
TEXT
  5
3290
330
A
100
AcDbEntity
  8
LEVEL001
 62
     6
370
    15
100
AcDbText
 10
405.6525047603799
 20
504.0802737308004
 30
0.0
 40
12.0
  1
３２
 50
90.0
 41
0.8
100
AcDbText
  0
LINE
  5
3291
330
A
100
AcDbEntity
  8
LEVEL001
  6
Continuous
 62
     6
370
    15
100
AcDbLine
 10
295.73209174178
 20
596.0802737308004
 30
0.0
 11
295.73209174178
 21
665.0802737308004
 31
0.0
  0
LINE
  5
3292
330
A
100
AcDbEntity
  8
LEVEL001
  6
Continuous
 62
     6
370
    15
100
AcDbLine
 10
322.30797458251
 20
596.0802737308004
 30
0.0
 11
291.73209174178
 21
596.0802737308004
 31
0.0
  0
LINE
  5
3293
330
A
100
AcDbEntity
  8
LEVEL001
  6
Continuous
 62
     6
370
    15
100
AcDbLine
 10
339.30797458246
 20
665.0802737308004
 30
0.0
 11
291.73209174178
 21
665.0802737308004
 31
0.0
  0
CIRCLE
  5
3294
330
A
100
AcDbEntity
  8
LEVEL001
  6
Continuous
 62
     6
370
    15
100
AcDbCircle
 10
295.73209174178
 20
596.0802737308004
 30
0.0
 40
0.8
  0
CIRCLE
  5
3295
330
A
100
AcDbEntity
  8
LEVEL001
  6
Continuous
 62
     6
370
    15
100
AcDbCircle
 10
295.73209174178
 20
665.0802737308004
 30
0.0
 40
0.8
  0
TEXT
  5
3296
330
A
100
AcDbEntity
  8
LEVEL001
 62
     6
370
    15
100
AcDbText
 10
291.73209174178
 20
619.5802737308004
 30
0.0
 40
12.0
  1
６９
 50
90.0
 41
0.8
100
AcDbText
  0
LINE
  5
3297
330
A
100
AcDbEntity
  8
LEVEL001
  6
Continuous
 62
     6
370
    15
100
AcDbLine
 10
476.30797458242
 20
313.6891256653998
 30
0.0
 11
557.30797458242
 21
313.6891256653998
 31
0.0
  0
CIRCLE
  5
3298
330
A
100
AcDbEntity
  8
LEVEL001
  6
Continuous
 62
     6
370
    15
100
AcDbCircle
 10
476.30797458242
 20
313.6891256653998
 30
0.0
 40
0.8
  0
LWPOLYLINE
  5
3299
330
A
100
AcDbEntity
  8
LEVEL001
  6
Continuous
 62
     6
370
    15
100
AcDbPolyline
 90
        4
 70
     0
 43
0.0
 10
545.30797458242
 20
315.8050494339004
 10
557.30797458242
 20
313.6891256653998
 10
545.30797458242
 20
311.5732018969002
 10
545.30797458242
 20
315.8050494339004
  0
TEXT
  5
329F
330
A
100
AcDbEntity
  8
LEVEL001
 62
     6
370
    15
100
AcDbText
 10
490.80797458242
 20
317.6891256653998
 30
0.0
 40
12.0
  1
＠≦９００
 41
0.8
100
AcDbText
  0
LINE
  5
32A0
330
A
100
AcDbEntity
  8
LEVEL001
  6
Continuous
 62
     6
370
    15
100
AcDbLine
 10
326.30797458242
 20
313.6891256653998
 30
0.0
 11
476.30797458242
 21
313.6891256653998
 31
0.0
  0
LINE
  5
32A1
330
A
100
AcDbEntity
  8
LEVEL001
  6
Continuous
 62
     6
370
    15
100
AcDbLine
 10
476.30797458242
 20
270.9398112911003
 30
0.0
 11
476.30797458242
 21
317.6891256653998
 31
0.0
  0
CIRCLE
  5
32A2
330
A
100
AcDbEntity
  8
LEVEL001
  6
Continuous
 62
     8
100
AcDbCircle
 10
326.30797458242
 20
313.6891256653998
 30
0.0
 40
0.8
  0
CIRCLE
  5
32A3
330
A
100
AcDbEntity
  8
LEVEL001
  6
Continuous
 62
     6
370
    15
100
AcDbCircle
 10
476.30797458242
 20
313.6891256653998
 30
0.0
 40
0.8
  0
TEXT
  5
32A4
330
A
100
AcDbEntity
  8
LEVEL001
 62
     6
370
    15
100
AcDbText
 10
385.30797458242
 20
317.6891256653998
 30
0.0
 40
12.0
  1
１５０
 41
0.8
100
AcDbText
  0
LINE
  5
32A5
330
A
100
AcDbEntity
  8
LEVEL001
  6
Continuous
 62
     6
370
    15
100
AcDbLine
 10
263.74704473138
 20
217.8851885984995
 30
0.0
 11
263.74704473138
 21
367.8851885984995
 31
0.0
  0
LINE
  5
32A6
330
A
100
AcDbEntity
  8
LEVEL001
  6
Continuous
 62
     6
370
    15
100
AcDbLine
 10
389.80797458246
 20
217.8851885984995
 30
0.0
 11
259.74704473138
 21
217.8851885984995
 31
0.0
  0
CIRCLE
  5
32A7
330
A
100
AcDbEntity
  8
LEVEL001
  6
Continuous
 62
     6
370
    15
100
AcDbCircle
 10
263.74704473138
 20
217.8851885984995
 30
0.0
 40
0.8
  0
TEXT
  5
32A8
330
A
100
AcDbEntity
  8
LEVEL001
 62
     6
370
    15
100
AcDbText
 10
259.74704473138
 20
276.8851885984996
 30
0.0
 40
12.0
  1
１５０
 50
90.0
 41
0.8
100
AcDbText
  0
LINE
  5
32A9
330
A
100
AcDbEntity
  8
LEVEL001
  6
Continuous
 62
     6
370
    15
100
AcDbLine
 10
263.74704473138
 20
367.8851885984995
 30
0.0
 11
263.74704473138
 21
515.0802737308004
 31
0.0
  0
LINE
  5
32AA
330
A
100
AcDbEntity
  8
LEVEL001
  6
Continuous
 62
     6
370
    15
100
AcDbLine
 10
323.31258061473
 20
367.8851885984995
 30
0.0
 11
259.74704473138
 21
367.8851885984995
 31
0.0
  0
CIRCLE
  5
32AB
330
A
100
AcDbEntity
  8
LEVEL001
  6
Continuous
 62
     6
370
    15
100
AcDbCircle
 10
263.74704473138
 20
367.8851885984995
 30
0.0
 40
0.8
  0
TEXT
  5
32AC
330
A
100
AcDbEntity
  8
LEVEL001
 62
     6
370
    15
100
AcDbText
 10
259.74704473138
 20
415.4827311646004
 30
0.0
 40
12.0
  1
＠≦５００
 50
90.0
 41
0.8
100
AcDbText
  0
LINE
  5
32AD
330
A
100
AcDbEntity
  8
LEVEL001
  6
Continuous
 62
     6
370
    15
100
AcDbLine
 10
263.74704473138
 20
515.0802737308004
 30
0.0
 11
263.74704473138
 21
665.0802737308004
 31
0.0
  0
LINE
  5
32AE
330
A
100
AcDbEntity
  8
LEVEL001
  6
Continuous
 62
     6
370
    15
100
AcDbLine
 10
321.31258061473
 20
515.0802737308004
 30
0.0
 11
259.74704473138
 21
515.0802737308004
 31
0.0
  0
LINE
  5
32AF
330
A
100
AcDbEntity
  8
LEVEL001
  6
Continuous
 62
     6
370
    15
100
AcDbLine
 10
302.30797458251
 20
665.0802737308004
 30
0.0
 11
259.74704473138
 21
665.0802737308004
 31
0.0
  0
CIRCLE
  5
32B0
330
A
100
AcDbEntity
  8
LEVEL001
  6
Continuous
 62
     6
370
    15
100
AcDbCircle
 10
263.74704473138
 20
515.0802737308004
 30
0.0
 40
0.8
  0
CIRCLE
  5
32B1
330
A
100
AcDbEntity
  8
LEVEL001
  6
Continuous
 62
     6
370
    15
100
AcDbCircle
 10
263.74704473138
 20
665.0802737308004
 30
0.0
 40
0.8
  0
TEXT
  5
32B2
330
A
100
AcDbEntity
  8
LEVEL001
 62
     6
370
    15
100
AcDbText
 10
259.74704473138
 20
574.0802737308004
 30
0.0
 40
12.0
  1
１５０
 50
90.0
 41
0.8
100
AcDbText
  0
LWPOLYLINE
  5
32B3
330
A
100
AcDbEntity
  8
LEVEL001
  6
Continuous
 62
     6
370
    15
100
AcDbPolyline
 90
        3
 70
     0
 43
0.0
 10
352.00928391143
 20
232.1844921420998
 10
338.94675911558
 20
181.2933091844998
 10
246.94675911558
 20
181.2933091844998
  0
CIRCLE
  5
32B8
330
A
100
AcDbEntity
  8
LEVEL001
  6
Continuous
 62
     6
370
    15
100
AcDbCircle
 10
352.00928391143
 20
232.1844921420998
 30
0.0
 40
0.8
  0
TEXT
  5
32B9
330
A
100
AcDbEntity
  8
LEVEL001
 62
     6
370
    15
100
AcDbText
 10
246.94675911558
 20
185.2933091844997
 30
0.0
 40
12.0
  1
コーナージョイント
 41
0.8
100
AcDbText
  0
LINE
  5
32BA
330
A
100
AcDbEntity
  8
LEVEL001
  6
Continuous
 62
     6
370
    15
100
AcDbLine
 10
386.20797458246
 20
878.8886593991001
 30
0.0
 11
329.70797458246
 21
878.8886593991001
 31
0.0
  0
LINE
  5
32BB
330
A
100
AcDbEntity
  8
LEVEL001
  6
Continuous
 62
     6
370
    15
100
AcDbLine
 10
386.20797458246
 20
823.1160641401002
 30
0.0
 11
386.20797458246
 21
882.8886593991001
 31
0.0
  0
LINE
  5
32BC
330
A
100
AcDbEntity
  8
LEVEL001
  6
Continuous
 62
     6
370
    15
100
AcDbLine
 10
329.70797458246
 20
823.1160641401002
 30
0.0
 11
329.70797458246
 21
882.8886593991001
 31
0.0
  0
CIRCLE
  5
32BD
330
A
100
AcDbEntity
  8
LEVEL001
  6
Continuous
 62
     6
370
    15
100
AcDbCircle
 10
386.20797458246
 20
878.8886593991001
 30
0.0
 40
0.8
  0
CIRCLE
  5
32BE
330
A
100
AcDbEntity
  8
LEVEL001
  6
Continuous
 62
     6
370
    15
100
AcDbCircle
 10
329.70797458246
 20
878.8886593991001
 30
0.0
 40
0.8
  0
TEXT
  5
32BF
330
A
100
AcDbEntity
  8
LEVEL001
 62
     6
370
    15
100
AcDbText
 10
339.45797458246
 20
882.8886593991001
 30
0.0
 40
12.0
  1
５６.５
 41
0.8
100
AcDbText
  0
LINE
  5
32C0
330
A
100
AcDbEntity
  8
LEVEL001
  6
Continuous
 62
     6
370
    15
100
AcDbLine
 10
386.20797458246
 20
1069.3687666849
 30
0.0
 11
329.70797458246
 21
1069.3687666849
 31
0.0
  0
LINE
  5
32C1
330
A
100
AcDbEntity
  8
LEVEL001
  6
Continuous
 62
     6
370
    15
100
AcDbLine
 10
386.20797458246
 20
1013.596171426
 30
0.0
 11
386.20797458246
 21
1073.3687666849
 31
0.0
  0
LINE
  5
32C2
330
A
100
AcDbEntity
  8
LEVEL001
  6
Continuous
 62
     6
370
    15
100
AcDbLine
 10
329.70797458246
 20
1013.596171426
 30
0.0
 11
329.70797458246
 21
1073.3687666849
 31
0.0
  0
CIRCLE
  5
32C3
330
A
100
AcDbEntity
  8
LEVEL001
  6
Continuous
 62
     6
370
    15
100
AcDbCircle
 10
386.20797458246
 20
1069.3687666849
 30
0.0
 40
0.8
  0
CIRCLE
  5
32C4
330
A
100
AcDbEntity
  8
LEVEL001
  6
Continuous
 62
     6
370
    15
100
AcDbCircle
 10
329.70797458246
 20
1069.3687666849
 30
0.0
 40
0.8
  0
TEXT
  5
32C5
330
A
100
AcDbEntity
  8
LEVEL001
 62
     6
370
    15
100
AcDbText
 10
339.45797458246
 20
1073.3687666849
 30
0.0
 40
12.0
  1
５６.５
 41
0.8
100
AcDbText
  0
LINE
  5
32C6
330
A
100
AcDbEntity
  8
LEVEL001
  6
Continuous
 62
     6
370
    15
100
AcDbLine
 10
295.73209174178
 20
1009.596171426
 30
0.0
 11
295.73209174178
 21
946.5961714260002
 31
0.0
  0
LINE
  5
32C7
330
A
100
AcDbEntity
  8
LEVEL001
  6
Continuous
 62
     6
370
    15
100
AcDbLine
 10
325.70797458246
 20
1009.596171426
 30
0.0
 11
291.73209174178
 21
1009.596171426
 31
0.0
  0
LINE
  5
32C8
330
A
100
AcDbEntity
  8
LEVEL001
  6
Continuous
 62
     6
370
    15
100
AcDbLine
 10
334.90797458246
 20
946.5961714260002
 30
0.0
 11
291.73209174178
 21
946.5961714260002
 31
0.0
  0
CIRCLE
  5
32C9
330
A
100
AcDbEntity
  8
LEVEL001
  6
Continuous
 62
     6
370
    15
100
AcDbCircle
 10
295.73209174178
 20
1009.596171426
 30
0.0
 40
0.8
  0
CIRCLE
  5
32CA
330
A
100
AcDbEntity
  8
LEVEL001
  6
Continuous
 62
     6
370
    15
100
AcDbCircle
 10
295.73209174178
 20
946.5961714260002
 30
0.0
 40
0.8
  0
TEXT
  5
32CB
330
A
100
AcDbEntity
  8
LEVEL001
 62
     6
370
    15
100
AcDbText
 10
291.73209174178
 20
967.0961714260002
 30
0.0
 40
12.0
  1
６３
 50
90.0
 41
0.8
100
AcDbText
  0
LINE
  5
32CC
330
A
100
AcDbEntity
  8
LEVEL001
  6
Continuous
 62
     6
370
    15
100
AcDbLine
 10
266.30797458251
 20
937.8461714256999
 30
0.0
 11
266.30797458251
 21
1009.596171426
 31
0.0
  0
LINE
  5
32CD
330
A
100
AcDbEntity
  8
LEVEL001
  6
Continuous
 62
     6
370
    15
100
AcDbLine
 10
339.30797458238
 20
937.8461714256999
 30
0.0
 11
262.30797458251
 21
937.8461714256999
 31
0.0
  0
LINE
  5
32CE
330
A
100
AcDbEntity
  8
LEVEL001
  6
Continuous
 62
     6
370
    15
100
AcDbLine
 10
266.30797458251
 20
1009.596171426
 30
0.0
 11
262.30797458251
 21
1009.596171426
 31
0.0
  0
CIRCLE
  5
32CF
330
A
100
AcDbEntity
  8
LEVEL001
  6
Continuous
 62
     6
370
    15
100
AcDbCircle
 10
266.30797458251
 20
937.8461714256999
 30
0.0
 40
0.8
  0
CIRCLE
  5
32D0
330
A
100
AcDbEntity
  8
LEVEL001
  6
Continuous
 62
     6
370
    15
100
AcDbCircle
 10
266.30797458251
 20
1009.596171426
 30
0.0
 40
0.8
  0
TEXT
  5
32D1
330
A
100
AcDbEntity
  8
LEVEL001
 62
     6
370
    15
100
AcDbText
 10
262.30797458251
 20
962.7211714258001
 30
0.0
 40
12.0
  1
７２
 50
90.0
 41
0.8
100
AcDbText
  0
LINE
  5
32D2
330
A
100
AcDbEntity
  8
LEVEL001
  6
Continuous
 62
     6
370
    15
100
AcDbLine
 10
295.73209174178
 20
819.1160641401001
 30
0.0
 11
295.73209174178
 21
756.1160641401002
 31
0.0
  0
LINE
  5
32D3
330
A
100
AcDbEntity
  8
LEVEL001
  6
Continuous
 62
     6
370
    15
100
AcDbLine
 10
325.70797458246
 20
819.1160641401001
 30
0.0
 11
291.73209174178
 21
819.1160641401001
 31
0.0
  0
LINE
  5
32D4
330
A
100
AcDbEntity
  8
LEVEL001
  6
Continuous
 62
     6
370
    15
100
AcDbLine
 10
334.90797458246
 20
756.1160641401002
 30
0.0
 11
291.73209174178
 21
756.1160641401002
 31
0.0
  0
CIRCLE
  5
32D5
330
A
100
AcDbEntity
  8
LEVEL001
  6
Continuous
 62
     6
370
    15
100
AcDbCircle
 10
295.73209174178
 20
819.1160641401001
 30
0.0
 40
0.8
  0
CIRCLE
  5
32D6
330
A
100
AcDbEntity
  8
LEVEL001
  6
Continuous
 62
     6
370
    15
100
AcDbCircle
 10
295.73209174178
 20
756.1160641401002
 30
0.0
 40
0.8
  0
TEXT
  5
32D7
330
A
100
AcDbEntity
  8
LEVEL001
 62
     6
370
    15
100
AcDbText
 10
291.73209174178
 20
776.6160641401001
 30
0.0
 40
12.0
  1
６３
 50
90.0
 41
0.8
100
AcDbText
  0
LINE
  5
32D8
330
A
100
AcDbEntity
  8
LEVEL001
  6
Continuous
 62
     6
370
    15
100
AcDbLine
 10
266.30797458251
 20
747.3660641399001
 30
0.0
 11
266.30797458251
 21
819.1160641401001
 31
0.0
  0
LINE
  5
32D9
330
A
100
AcDbEntity
  8
LEVEL001
  6
Continuous
 62
     6
370
    15
100
AcDbLine
 10
339.30797458238
 20
747.3660641399001
 30
0.0
 11
262.30797458251
 21
747.3660641399001
 31
0.0
  0
LINE
  5
32DA
330
A
100
AcDbEntity
  8
LEVEL001
  6
Continuous
 62
     6
370
    15
100
AcDbLine
 10
266.30797458251
 20
819.1160641401001
 30
0.0
 11
262.30797458251
 21
819.1160641401001
 31
0.0
  0
CIRCLE
  5
32DB
330
A
100
AcDbEntity
  8
LEVEL001
  6
Continuous
 62
     6
370
    15
100
AcDbCircle
 10
266.30797458251
 20
747.3660641399001
 30
0.0
 40
0.8
  0
CIRCLE
  5
32DC
330
A
100
AcDbEntity
  8
LEVEL001
  6
Continuous
 62
     6
370
    15
100
AcDbCircle
 10
266.30797458251
 20
819.1160641401001
 30
0.0
 40
0.8
  0
TEXT
  5
32DD
330
A
100
AcDbEntity
  8
LEVEL001
 62
     6
370
    15
100
AcDbText
 10
262.30797458251
 20
772.2410641400001
 30
0.0
 40
12.0
  1
７２
 50
90.0
 41
0.8
100
AcDbText
  0
LINE
  5
32DE
330
A
100
AcDbEntity
  8
LEVEL001
  6
Continuous
 62
     6
370
    15
100
AcDbLine
 10
409.7464991646299
 20
1044.949102827299
 30
0.0
 11
361.30797458246
 21
1044.949102827299
 31
0.0
  0
LINE
  5
32DF
330
A
100
AcDbEntity
  8
LEVEL001
  6
Continuous
 62
     6
370
    15
100
AcDbLine
 10
386.20797458246
 20
1013.596171426
 30
0.0
 11
386.20797458246
 21
1048.949102827299
 31
0.0
  0
CIRCLE
  5
32E0
330
A
100
AcDbEntity
  8
LEVEL001
  6
Continuous
 62
     6
370
    15
100
AcDbCircle
 10
386.20797458246
 20
1044.949102827299
 30
0.0
 40
0.8
  0
TEXT
  5
32E1
330
A
100
AcDbEntity
  8
LEVEL001
 62
     6
370
    15
100
AcDbText
 10
387.74649916463
 20
1048.04564861
 30
0.0
 40
12.0
  1
２５
 41
0.8
100
AcDbText
  0
LINE
  5
32E2
330
A
100
AcDbEntity
  8
LEVEL001
  6
Continuous
 62
     6
370
    15
100
AcDbLine
 10
361.30797458246
 20
1044.949102827299
 30
0.0
 11
290.48942884319
 21
1044.949102827299
 31
0.0
  0
LINE
  5
32E3
330
A
100
AcDbEntity
  8
LEVEL001
  6
Continuous
 62
     6
370
    15
100
AcDbLine
 10
361.30797458246
 20
1015.7018344924
 30
0.0
 11
361.30797458246
 21
1048.949102827299
 31
0.0
  0
LINE
  5
32E4
330
A
100
AcDbEntity
  8
LEVEL001
  6
Continuous
 62
     6
370
    15
100
AcDbLine
 10
329.70797458246
 20
1013.596171426
 30
0.0
 11
329.70797458246
 21
1048.949102827299
 31
0.0
  0
CIRCLE
  5
32E5
330
A
100
AcDbEntity
  8
LEVEL001
  6
Continuous
 62
     6
370
    15
100
AcDbCircle
 10
361.30797458246
 20
1044.949102827299
 30
0.0
 40
0.8
  0
CIRCLE
  5
32E6
330
A
100
AcDbEntity
  8
LEVEL001
  6
Continuous
 62
     6
370
    15
100
AcDbCircle
 10
329.70797458246
 20
1044.949102827299
 30
0.0
 40
0.8
  0
TEXT
  5
32E7
330
A
100
AcDbEntity
  8
LEVEL001
 62
     6
370
    15
100
AcDbText
 10
290.48942884319
 20
1048.4699941757
 30
0.0
 40
12.0
  1
３１.５
 41
0.8
100
AcDbText
  0
LINE
  5
32E8
330
A
100
AcDbEntity
  8
LEVEL001
  6
Continuous
 62
     6
370
    15
100
AcDbLine
 10
414.73255956094
 20
854.4689955413996
 30
0.0
 11
361.30797458246
 21
854.4689955413996
 31
0.0
  0
LINE
  5
32E9
330
A
100
AcDbEntity
  8
LEVEL001
  6
Continuous
 62
     6
370
    15
100
AcDbLine
 10
386.20797458246
 20
823.1160641401002
 30
0.0
 11
386.20797458246
 21
858.4689955413995
 31
0.0
  0
CIRCLE
  5
32EA
330
A
100
AcDbEntity
  8
LEVEL001
  6
Continuous
 62
     6
370
    15
100
AcDbCircle
 10
386.20797458246
 20
854.4689955413996
 30
0.0
 40
0.8
  0
TEXT
  5
32EB
330
A
100
AcDbEntity
  8
LEVEL001
 62
     6
370
    15
100
AcDbText
 10
392.73255956094
 20
858.0979647886998
 30
0.0
 40
12.0
  1
２５
 41
0.8
100
AcDbText
  0
LINE
  5
32EC
330
A
100
AcDbEntity
  8
LEVEL001
  6
Continuous
 62
     6
370
    15
100
AcDbLine
 10
361.30797458246
 20
854.4689955413996
 30
0.0
 11
288.79204658062
 21
854.4689955413996
 31
0.0
  0
LINE
  5
32ED
330
A
100
AcDbEntity
  8
LEVEL001
  6
Continuous
 62
     6
370
    15
100
AcDbLine
 10
361.30797458246
 20
825.2217272065999
 30
0.0
 11
361.30797458246
 21
858.4689955413995
 31
0.0
  0
LINE
  5
32EE
330
A
100
AcDbEntity
  8
LEVEL001
  6
Continuous
 62
     6
370
    15
100
AcDbLine
 10
329.70797458246
 20
823.1160641401002
 30
0.0
 11
329.70797458246
 21
858.4689955413995
 31
0.0
  0
CIRCLE
  5
32EF
330
A
100
AcDbEntity
  8
LEVEL001
  6
Continuous
 62
     6
370
    15
100
AcDbCircle
 10
361.30797458246
 20
854.4689955413996
 30
0.0
 40
0.8
  0
CIRCLE
  5
32F0
330
A
100
AcDbEntity
  8
LEVEL001
  6
Continuous
 62
     6
370
    15
100
AcDbCircle
 10
329.70797458246
 20
854.4689955413996
 30
0.0
 40
0.8
  0
TEXT
  5
32F1
330
A
100
AcDbEntity
  8
LEVEL001
 62
     6
370
    15
100
AcDbText
 10
288.79204658062
 20
857.9388352015003
 30
0.0
 40
12.0
  1
３１.５
 41
0.8
100
AcDbText
  0
ARC
  5
3B3F
330
A
100
AcDbEntity
  8
LEVEL001
  6
Continuous
 62
     1
100
AcDbCircle
 10
343.30797458246
 20
954.5961714260002
 30
0.0
 40
16.9
100
AcDbArc
 50
106.4550831966478
 51
73.54491680335214
  0
ARC
  5
3B40
330
A
100
AcDbEntity
  8
LEVEL001
  6
Continuous
 62
     1
100
AcDbCircle
 10
343.30797458246
 20
954.5961714260002
 30
0.0
 40
13.0
100
AcDbArc
 50
258.2380376682564
 51
281.7619623317802
  0
ARC
  5
3B41
330
A
100
AcDbEntity
  8
LEVEL001
  6
Continuous
 62
     1
100
AcDbCircle
 10
339.85797458246
 20
942.6961714260006
 30
0.0
 40
0.8
100
AcDbArc
 50
0.0
 51
180.0
  0
LINE
  5
3B42
330
A
100
AcDbEntity
  8
LEVEL001
  6
Continuous
 62
     1
100
AcDbLine
 10
340.65797458246
 20
942.6961714260006
 30
0.0
 11
340.65797458246
 21
941.8691332788103
 31
0.0
  0
LINE
  5
3B43
330
A
100
AcDbEntity
  8
LEVEL001
  6
Continuous
 62
     1
100
AcDbLine
 10
339.05797458246
 20
942.6961714260006
 30
0.0
 11
339.05797458246
 21
942.3105090506897
 31
0.0
  0
ARC
  5
3B44
330
A
100
AcDbEntity
  8
LEVEL001
  6
Continuous
 62
     1
100
AcDbCircle
 10
346.75797458246
 20
942.6961714260006
 30
0.0
 40
0.8
100
AcDbArc
 50
0.0
 51
180.0
  0
LINE
  5
3B45
330
A
100
AcDbEntity
  8
LEVEL001
  6
Continuous
 62
     1
100
AcDbLine
 10
345.95797458246
 20
942.6961714260006
 30
0.0
 11
345.95797458246
 21
941.8691332788103
 31
0.0
  0
LINE
  5
3B46
330
A
100
AcDbEntity
  8
LEVEL001
  6
Continuous
 62
     1
100
AcDbLine
 10
347.55797458246
 20
942.6961714260006
 30
0.0
 11
347.55797458246
 21
942.3105090506897
 31
0.0
  0
ARC
  5
3B47
330
A
100
AcDbEntity
  8
LEVEL001
  6
Continuous
 62
     1
100
AcDbCircle
 10
343.30797458246
 20
954.5961714260002
 30
0.0
 40
13.0
100
AcDbArc
 50
122.0574433961974
 51
250.9178751963967
  0
ARC
  5
3B48
330
A
100
AcDbEntity
  8
LEVEL001
  6
Continuous
 62
     1
100
AcDbCircle
 10
343.30797458246
 20
954.5961714260002
 30
0.0
 40
13.0
100
AcDbArc
 50
289.0821248035985
 51
57.94255660378406
  0
LINE
  5
3B49
330
A
100
AcDbEntity
  8
LEVEL001
  6
Continuous
 62
     1
100
AcDbLine
 10
340.30797458246
 20
966.3860455814401
 30
0.0
 11
340.30797458246
 21
969.1789388002499
 31
0.0
  0
LINE
  5
3B4A
330
A
100
AcDbEntity
  8
LEVEL001
  6
Continuous
 62
     1
100
AcDbLine
 10
346.30797458246
 20
966.3860455814401
 30
0.0
 11
346.30797458246
 21
969.1789388002499
 31
0.0
  0
LINE
  5
3B4B
330
A
100
AcDbEntity
  8
LEVEL001
  6
Continuous
 62
     1
100
AcDbLine
 10
350.20797458246
 20
965.61388443733
 30
0.0
 11
350.20797458246
 21
963.3961714260003
 31
0.0
  0
ARC
  5
3B4C
330
A
100
AcDbEntity
  8
LEVEL001
  6
Continuous
 62
     1
100
AcDbCircle
 10
349.70797458241
 20
963.3961714260003
 30
0.0
 40
0.5
100
AcDbArc
 50
270.0000000059145
 51
0.0
  0
LINE
  5
3B4D
330
A
100
AcDbEntity
  8
LEVEL001
  6
Continuous
 62
     1
100
AcDbLine
 10
336.4079745824601
 20
965.61388443733
 30
0.0
 11
336.4079745824601
 21
963.3961714260003
 31
0.0
  0
LINE
  5
3B4E
330
A
100
AcDbEntity
  8
LEVEL001
  6
Continuous
 62
     1
100
AcDbLine
 10
340.1615279730501
 20
969.5324921908405
 30
0.0
 11
339.01600502313
 21
970.6780151407702
 31
0.0
  0
LINE
  5
3B4F
330
A
100
AcDbEntity
  8
LEVEL001
  6
Continuous
 62
     1
100
AcDbLine
 10
346.45442119187
 20
969.5324921908405
 30
0.0
 11
347.5999441418001
 21
970.6780151407702
 31
0.0
  0
ARC
  5
3B50
330
A
100
AcDbEntity
  8
LEVEL001
  6
Continuous
 62
     1
100
AcDbCircle
 10
347.95349753241
 20
970.3244617501704
 30
0.0
 40
0.5
100
AcDbArc
 50
73.54491680575894
 51
135.0000000011684
  0
ARC
  5
3B51
330
A
100
AcDbEntity
  8
LEVEL001
  6
Continuous
 62
     1
100
AcDbCircle
 10
346.80797458249
 20
969.1789388002799
 30
0.0
 40
0.5
100
AcDbArc
 50
135.0000000047046
 51
180.000000003335
  0
ARC
  5
3B52
330
A
100
AcDbEntity
  8
LEVEL001
  6
Continuous
 62
     1
100
AcDbCircle
 10
339.80797458246
 20
969.1789388001197
 30
0.0
 40
0.5
100
AcDbArc
 50
0.0
 51
45.00000001055197
  0
ARC
  5
3B53
330
A
100
AcDbEntity
  8
LEVEL001
  6
Continuous
 62
     1
100
AcDbCircle
 10
339.80797458246
 20
969.1789388001197
 30
0.0
 40
0.5
100
AcDbArc
 50
0.0
 51
45.00000001055197
  0
ARC
  5
3B54
330
A
100
AcDbEntity
  8
LEVEL001
  6
Continuous
 62
     1
100
AcDbCircle
 10
338.6624516324701
 20
970.3244617502404
 30
0.0
 40
0.5
100
AcDbArc
 50
44.99999998947348
 51
106.4550831916401
  0
LINE
  5
3B55
330
A
100
AcDbEntity
  8
LEVEL001
  6
Continuous
 62
     1
100
AcDbLine
 10
348.20797458246
 20
964.4860455814406
 30
0.0
 11
348.20797458246
 21
963.8961714260004
 31
0.0
  0
ARC
  5
3B56
330
A
100
AcDbEntity
  8
LEVEL001
  6
Continuous
 62
     1
100
AcDbCircle
 10
347.30797458246
 20
966.3860455814701
 30
0.0
 40
1.0
100
AcDbArc
 50
180.0000000021365
 51
269.9999999999968
  0
ARC
  5
3B57
330
A
100
AcDbEntity
  8
LEVEL001
  6
Continuous
 62
     1
100
AcDbCircle
 10
349.20797458246
 20
963.8961714259703
 30
0.0
 40
1.0
100
AcDbArc
 50
179.9999999981761
 51
270.0
  0
ARC
  5
3B58
330
A
100
AcDbEntity
  8
LEVEL001
  6
Continuous
 62
     1
100
AcDbCircle
 10
347.30797458246
 20
964.4860455814205
 30
0.0
 40
0.9
100
AcDbArc
 50
0.0
 51
90.00000000000003
  0
ARC
  5
3B59
330
A
100
AcDbEntity
  8
LEVEL001
  6
Continuous
 62
     1
100
AcDbCircle
 10
339.30797458245
 20
966.3860455814401
 30
0.0
 40
1.0
100
AcDbArc
 50
270.0000000005992
 51
0.0
  0
LINE
  5
3B5A
330
A
100
AcDbEntity
  8
LEVEL001
  6
Continuous
 62
     1
100
AcDbLine
 10
338.4079745824601
 20
964.4860455814406
 30
0.0
 11
338.4079745824601
 21
963.8961714260004
 31
0.0
  0
ARC
  5
3B5B
330
A
100
AcDbEntity
  8
LEVEL001
  6
Continuous
 62
     1
100
AcDbCircle
 10
337.4079745824801
 20
963.8961714260004
 30
0.0
 40
1.0
100
AcDbArc
 50
269.9999999989318
 51
0.0
  0
ARC
  5
3B5C
330
A
100
AcDbEntity
  8
LEVEL001
  6
Continuous
 62
     1
100
AcDbCircle
 10
336.90797458246
 20
963.3961714260705
 30
0.0
 40
0.5
100
AcDbArc
 50
180.0000000082855
 51
270.0
  0
LINE
  5
3B5D
330
A
100
AcDbEntity
  8
LEVEL001
  6
Continuous
 62
     1
100
AcDbLine
 10
336.90797458246
 20
962.8961714260004
 30
0.0
 11
337.40797458246
 21
962.8961714260004
 31
0.0
  0
ARC
  5
3B5E
330
A
100
AcDbEntity
  8
LEVEL001
  6
Continuous
 62
     1
100
AcDbCircle
 10
339.30797458243
 20
964.4860455814406
 30
0.0
 40
0.9
100
AcDbArc
 50
89.99999999792212
 51
180.0
  0
LINE
  5
3B5F
330
A
100
AcDbEntity
  8
LEVEL001
  6
Continuous
 62
     1
100
AcDbLine
 10
349.70797458246
 20
962.8961714260004
 30
0.0
 11
349.20797458246
 21
962.8961714260004
 31
0.0
  0
LWPOLYLINE
  5
3BA9
330
A
100
AcDbEntity
  8
LEVEL001
  6
Continuous
 62
     8
100
AcDbPolyline
 90
        5
 70
     0
 43
0.0
 10
78.97091731729
 20
769.0834604273995
 10
78.97091731729
 20
755.7165751095999
 10
146.44186225463
 20
755.7165751095999
 10
146.44186225463
 20
769.0834604273995
 10
78.97091731729
 20
769.0834604273995
  0
TEXT
  5
3BAA
330
A
100
AcDbEntity
  8
LEVEL001
 62
     8
100
AcDbText
 10
85.70638978595999
 20
757.9000177685002
 30
0.0
 40
9.0
  1
※受注生産品
 41
0.8
 11
85.70638978595999
 21
762.4000177685002
 31
0.0
100
AcDbText
 73
     2
  0
LINE
  5
3CD7
330
A
100
AcDbEntity
  8
LEVEL001
  6
HIDDEN
 62
     2
 48
0.5
370
    15
100
AcDbLine
 10
364.6079745824607
 20
990.0961714260002
 30
0.0
 11
358.2079745824611
 21
990.0961714260002
 31
0.0
  0
LINE
  5
3CD8
330
A
100
AcDbEntity
  8
LEVEL001
  6
HIDDEN
 62
     2
 48
0.5
370
    15
100
AcDbLine
 10
357.40797458246
 20
990.8961714260012
 30
0.0
 11
365.4079745824618
 21
990.8961714260012
 31
0.0
  0
LINE
  5
3CD9
330
A
100
AcDbEntity
  8
LEVEL001
  6
HIDDEN
 62
     2
 48
0.5
370
    15
100
AcDbLine
 10
358.2079745824611
 20
990.0961714260002
 30
0.0
 11
358.2079745824611
 21
993.5961714260001
 31
0.0
  0
LINE
  5
3CDA
330
A
100
AcDbEntity
  8
LEVEL001
  6
HIDDEN
 62
     2
 48
0.5
370
    15
100
AcDbLine
 10
357.40797458246
 20
990.8961714260012
 30
0.0
 11
357.40797458246
 21
993.5961714260001
 31
0.0
  0
LINE
  5
3CDB
330
A
100
AcDbEntity
  8
LEVEL001
  6
HIDDEN
 62
     2
 48
0.5
370
    15
100
AcDbLine
 10
358.2079745824611
 20
990.0961714260002
 30
0.0
 11
357.40797458246
 21
990.8961714260012
 31
0.0
  0
LINE
  5
3CDC
330
A
100
AcDbEntity
  8
LEVEL001
  6
HIDDEN
 62
     2
 48
0.5
370
    15
100
AcDbLine
 10
365.40797458246
 20
993.5961714260001
 30
0.0
 11
365.40797458246
 21
990.8961714260012
 31
0.0
  0
LINE
  5
3CDD
330
A
100
AcDbEntity
  8
LEVEL001
  6
HIDDEN
 62
     2
 48
0.5
370
    15
100
AcDbLine
 10
364.6079745824607
 20
993.5961714260001
 30
0.0
 11
364.6079745824607
 21
990.0961714260002
 31
0.0
  0
LINE
  5
3CDE
330
A
100
AcDbEntity
  8
LEVEL001
  6
HIDDEN
 62
     2
 48
0.5
370
    15
100
AcDbLine
 10
365.40797458246
 20
990.8961714260012
 30
0.0
 11
364.6079745824607
 21
990.0961714260002
 31
0.0
  0
LINE
  5
3CDF
330
A
100
AcDbEntity
  8
LEVEL001
  6
HIDDEN
 62
     2
 48
0.5
370
    15
100
AcDbLine
 10
364.6079745824607
 20
799.6160641401002
 30
0.0
 11
358.2079745824611
 21
799.6160641401002
 31
0.0
  0
LINE
  5
3CE0
330
A
100
AcDbEntity
  8
LEVEL001
  6
HIDDEN
 62
     2
 48
0.5
370
    15
100
AcDbLine
 10
357.40797458246
 20
800.4160641401012
 30
0.0
 11
365.4079745824618
 21
800.4160641401012
 31
0.0
  0
LINE
  5
3CE1
330
A
100
AcDbEntity
  8
LEVEL001
  6
HIDDEN
 62
     2
 48
0.5
370
    15
100
AcDbLine
 10
358.2079745824611
 20
799.6160641401002
 30
0.0
 11
358.2079745824611
 21
803.1160641401001
 31
0.0
  0
LINE
  5
3CE2
330
A
100
AcDbEntity
  8
LEVEL001
  6
HIDDEN
 62
     2
 48
0.5
370
    15
100
AcDbLine
 10
357.40797458246
 20
800.4160641401012
 30
0.0
 11
357.40797458246
 21
803.1160641401001
 31
0.0
  0
LINE
  5
3CE3
330
A
100
AcDbEntity
  8
LEVEL001
  6
HIDDEN
 62
     2
 48
0.5
370
    15
100
AcDbLine
 10
358.2079745824611
 20
799.6160641401002
 30
0.0
 11
357.40797458246
 21
800.4160641401012
 31
0.0
  0
LINE
  5
3CE4
330
A
100
AcDbEntity
  8
LEVEL001
  6
HIDDEN
 62
     2
 48
0.5
370
    15
100
AcDbLine
 10
365.40797458246
 20
803.1160641401001
 30
0.0
 11
365.40797458246
 21
800.4160641401012
 31
0.0
  0
LINE
  5
3CE5
330
A
100
AcDbEntity
  8
LEVEL001
  6
HIDDEN
 62
     2
 48
0.5
370
    15
100
AcDbLine
 10
364.6079745824607
 20
803.1160641401001
 30
0.0
 11
364.6079745824607
 21
799.6160641401002
 31
0.0
  0
LINE
  5
3CE6
330
A
100
AcDbEntity
  8
LEVEL001
  6
HIDDEN
 62
     2
 48
0.5
370
    15
100
AcDbLine
 10
365.40797458246
 20
800.4160641401012
 30
0.0
 11
364.6079745824607
 21
799.6160641401002
 31
0.0
  0
HATCH
  5
4D49
330
A
100
AcDbEntity
  8
LEVEL001
  6
Continuous
100
AcDbHatch
 10
0.0
 20
0.0
 30
0.0
210
0.0
220
0.0
230
1.0
  2
ANSI31
 70
     0
 71
     0
 91
        9
 92
        7
 72
     1
 73
     1
 93
        8
 10
1576.9200000003
 20
1087.34
 42
0.0
 10
1559.6400000003
 20
1087.34
 42
1.0
 10
1559.6400000003
 20
1052.78
 42
0.0
 10
1576.9200000003
 20
1052.78
 42
0.0
 10
1576.9200000003
 20
1064.299999999999
 42
0.0
 10
1559.6400000003
 20
1064.299999999999
 42
-1.0
 10
1559.6400000003
 20
1075.819999999999
 42
0.0
 10
1576.9200000003
 20
1075.819999999999
 42
0.0
 97
        0
 92
        7
 72
     0
 73
     1
 93
       22
 10
1542.3600000003
 20
1087.34
 10
1473.2400000003
 20
1087.34
 10
1473.2400000003
 20
1075.819999999999
 10
1484.7600000003
 20
1075.819999999999
 10
1484.7600000003
 20
1064.299999999999
 10
1467.4800000003
 20
1064.299999999999
 10
1467.4800000003
 20
1087.34
 10
1455.9600000003
 20
1087.34
 10
1455.9600000003
 20
1052.78
 10
1496.2800000003
 20
1052.78
 10
1496.2800000003
 20
1075.819999999999
 10
1507.8000000003
 20
1075.819999999999
 10
1507.8000000003
 20
1052.78
 10
1542.3600000003
 20
1052.78
 10
1542.3600000003
 20
1064.299999999999
 10
1519.3200000003
 20
1064.299999999999
 10
1519.3200000003
 20
1067.18
 10
1539.4800000003
 20
1067.18
 10
1539.4800000003
 20
1072.94
 10
1519.3200000003
 20
1072.94
 10
1519.3200000003
 20
1075.819999999999
 10
1542.3600000003
 20
1075.819999999999
 97
        0
 92
       23
 72
     0
 73
     1
 93
        3
 10
1452.1200000003
 20
1074.657341551099
 10
1437.5351056329
 20
1052.78
 10
1452.1200000003
 20
1052.78
 97
        0
 92
        7
 72
     0
 73
     1
 93
        4
 10
1455.9600000003
 20
1087.34
 10
1438.6800000003
 20
1087.34
 10
1415.6400000003
 20
1052.78
 10
1432.9200000003
 20
1052.78
 97
        0
 92
        7
 72
     1
 73
     1
 93
        6
 10
1409.8800000003
 20
1087.34
 42
0.0
 10
1386.8400000003
 20
1087.34
 42
0.0
 10
1386.8400000003
 20
1052.78
 42
0.0
 10
1398.3600000003
 20
1052.78
 42
0.0
 10
1398.3600000003
 20
1058.54
 42
0.0
 10
1409.8800000003
 20
1058.54
 42
1.0
 97
        0
 92
       22
 72
     1
 73
     1
 93
        4
 10
1409.8800000003
 20
1070.059999999999
 42
0.0
 10
1398.3600000003
 20
1070.059999999999
 42
0.0
 10
1398.3600000003
 20
1075.819999999999
 42
0.0
 10
1409.8800000003
 20
1075.819999999999
 42
-1.0
 97
        0
 92
        7
 72
     0
 73
     1
 93
        3
 10
1375.3200000003
 20
1083.5
 10
1360.9200000003
 20
1083.5
 10
1375.3200000003
 20
1060.46
 97
        0
 92
        7
 72
     0
 73
     1
 93
        6
 10
1372.7600000003
 20
1114.219999999999
 10
1355.4800000003
 20
1114.219999999999
 10
1335.0000000003
 20
1083.5
 10
1355.4800000003
 20
1052.78
 10
1372.7600000003
 20
1052.78
 10
1352.2800000003
 20
1083.5
 97
        0
 92
        7
 72
     0
 73
     1
 93
        6
 10
1346.8400000003
 20
1114.219999999999
 10
1329.5600000003
 20
1114.219999999999
 10
1309.0800000003
 20
1083.5
 10
1329.5600000003
 20
1052.78
 10
1346.8400000003
 20
1052.78
 10
1326.3600000003
 20
1083.5
 97
        0
 75
     1
 76
     1
 52
0.0
 41
1.0
 77
     0
 78
     1
 53
45.0
 43
0.0
 44
0.0
 45
-0.0883883476483184
 46
0.0883883476483185
 79
     0
 47
0.3942339837251763
 98
        9
 10
1560.503682650167
 20
1083.514472919065
 10
1519.867685341247
 20
1082.726005559532
 10
1445.697116532407
 20
1057.495030692309
 10
1435.439489327917
 20
1065.773937967395
 10
1416.896828905148
 20
1068.927807405525
 10
1416.896828905148
 20
1068.927807405525
 10
1367.186775359907
 20
1079.177902441639
 10
1357.718207614576
 20
1104.803110988629
 10
1331.285061923656
 20
1108.351214106522
1001
GradientColor1ACI
1070
     5
1001
GradientColor2ACI
1070
     2
1001
ACAD
1010
0.0
1020
0.0
1030
0.0
  0
LWPOLYLINE
  5
4D4A
330
A
100
AcDbEntity
  8
LEVEL001
  6
Continuous
 62
     3
100
AcDbPolyline
 90
        6
 70
     0
 43
0.0
 10
1409.8800000003
 20
1087.34
 10
1386.8400000003
 20
1087.34
 10
1386.8400000003
 20
1052.78
 10
1398.3600000003
 20
1052.78
 10
1398.3600000003
 20
1058.54
 10
1409.8800000003
 20
1058.54
  0
LWPOLYLINE
  5
4D4B
330
A
100
AcDbEntity
  8
LEVEL001
  6
Continuous
 62
     3
100
AcDbPolyline
 90
       26
 70
     0
 43
0.0
 10
1415.6400000003
 20
1052.78
 10
1438.6800000003
 20
1087.34
 10
1467.4800000003
 20
1087.34
 10
1467.4800000003
 20
1064.299999999999
 10
1484.7600000003
 20
1064.299999999999
 10
1484.7600000003
 20
1075.819999999999
 10
1473.2400000003
 20
1075.819999999999
 10
1473.2400000003
 20
1087.34
 10
1542.3600000003
 20
1087.34
 10
1542.3600000003
 20
1075.819999999999
 10
1519.3200000003
 20
1075.819999999999
 10
1519.3200000003
 20
1072.94
 10
1539.4800000003
 20
1072.94
 10
1539.4800000003
 20
1067.18
 10
1519.3200000003
 20
1067.18
 10
1519.3200000003
 20
1064.299999999999
 10
1542.3600000003
 20
1064.299999999999
 10
1542.3600000003
 20
1052.78
 10
1507.8000000003
 20
1052.78
 10
1507.8000000003
 20
1075.819999999999
 10
1496.2800000003
 20
1075.819999999999
 10
1496.2800000003
 20
1052.78
 10
1455.9600000003
 20
1052.78
 10
1455.9600000003
 20
1087.34
 10
1432.9200000003
 20
1052.78
 10
1415.6400000003
 20
1052.78
  0
LWPOLYLINE
  5
4D4C
330
A
100
AcDbEntity
  8
LEVEL001
  6
Continuous
 62
     3
100
AcDbPolyline
 90
        4
 70
     0
 43
0.0
 10
1452.1200000003
 20
1074.657341551099
 10
1437.5351056329
 20
1052.78
 10
1452.1200000003
 20
1052.78
 10
1452.1200000003
 20
1074.657341551099
  0
LWPOLYLINE
  5
4D4D
330
A
100
AcDbEntity
  8
LEVEL001
  6
Continuous
 62
     3
100
AcDbPolyline
 90
        4
 70
     0
 43
0.0
 10
1559.6400000003
 20
1087.34
 10
1576.9200000003
 20
1087.34
 10
1576.9200000003
 20
1075.819999999999
 10
1559.6400000003
 20
1075.819999999999
  0
ARC
  5
4D4E
330
A
100
AcDbEntity
  8
LEVEL001
  6
Continuous
 62
     3
100
AcDbCircle
 10
1409.8800000003
 20
1072.94
 30
0.0
 40
14.4
100
AcDbArc
 50
270.0
 51
90.0
  0
LINE
  5
4D4F
330
A
100
AcDbEntity
  8
LEVEL001
  6
Continuous
 62
     3
100
AcDbLine
 10
1409.8800000003
 20
1087.34
 30
0.0
 11
1386.8400000003
 21
1087.34
 31
0.0
  0
LINE
  5
4D50
330
A
100
AcDbEntity
  8
LEVEL001
  6
Continuous
 62
     3
100
AcDbLine
 10
1398.3600000003
 20
1075.819999999999
 30
0.0
 11
1398.3600000003
 21
1070.059999999999
 31
0.0
  0
LINE
  5
4D51
330
A
100
AcDbEntity
  8
LEVEL001
  6
Continuous
 62
     3
100
AcDbLine
 10
1398.3600000003
 20
1070.059999999999
 30
0.0
 11
1409.8800000003
 21
1070.059999999999
 31
0.0
  0
ARC
  5
4D52
330
A
100
AcDbEntity
  8
LEVEL001
  6
Continuous
 62
     3
100
AcDbCircle
 10
1409.8800000003
 20
1072.94
 30
0.0
 40
2.879999999999999
100
AcDbArc
 50
270.0
 51
90.0
  0
LINE
  5
4D53
330
A
100
AcDbEntity
  8
LEVEL001
  6
Continuous
 62
     3
100
AcDbLine
 10
1409.8800000003
 20
1075.819999999999
 30
0.0
 11
1398.3600000003
 21
1075.819999999999
 31
0.0
  0
LINE
  5
4D54
330
A
100
AcDbEntity
  8
LEVEL001
  6
Continuous
 62
     3
100
AcDbLine
 10
1432.9200000003
 20
1052.78
 30
0.0
 11
1455.9600000003
 21
1087.34
 31
0.0
  0
LINE
  5
4D55
330
A
100
AcDbEntity
  8
LEVEL001
  6
Continuous
 62
     3
100
AcDbLine
 10
1437.5351056329
 20
1052.78
 30
0.0
 11
1452.1200000003
 21
1052.78
 31
0.0
  0
LINE
  5
4D56
330
A
100
AcDbEntity
  8
LEVEL001
  6
Continuous
 62
     3
100
AcDbLine
 10
1542.3600000003
 20
1087.34
 30
0.0
 11
1473.2400000003
 21
1087.34
 31
0.0
  0
LINE
  5
4D57
330
A
100
AcDbEntity
  8
LEVEL001
  6
Continuous
 62
     3
100
AcDbLine
 10
1559.6400000003
 20
1052.78
 30
0.0
 11
1576.9200000003
 21
1052.78
 31
0.0
  0
LINE
  5
4D58
330
A
100
AcDbEntity
  8
LEVEL001
  6
Continuous
 62
     3
100
AcDbLine
 10
1576.9200000003
 20
1052.78
 30
0.0
 11
1576.9200000003
 21
1064.299999999999
 31
0.0
  0
LINE
  5
4D59
330
A
100
AcDbEntity
  8
LEVEL001
  6
Continuous
 62
     3
100
AcDbLine
 10
1576.9200000003
 20
1064.299999999999
 30
0.0
 11
1559.6400000003
 21
1064.299999999999
 31
0.0
  0
ARC
  5
4D5A
330
A
100
AcDbEntity
  8
LEVEL001
  6
Continuous
 62
     3
100
AcDbCircle
 10
1559.6400000003
 20
1070.059999999999
 30
0.0
 40
5.759999999999999
100
AcDbArc
 50
90.0
 51
270.0
  0
LINE
  5
4D5B
330
A
100
AcDbEntity
  8
LEVEL001
  6
Continuous
 62
     3
100
AcDbLine
 10
1576.9200000003
 20
1087.34
 30
0.0
 11
1559.6400000003
 21
1087.34
 31
0.0
  0
ARC
  5
4D5C
330
A
100
AcDbEntity
  8
LEVEL001
  6
Continuous
 62
     3
100
AcDbCircle
 10
1559.6400000003
 20
1070.059999999999
 30
0.0
 40
17.28
100
AcDbArc
 50
90.0
 51
270.0
  0
LWPOLYLINE
  5
4D5D
330
A
100
AcDbEntity
  8
LEVEL001
  6
Continuous
 62
     3
100
AcDbPolyline
 90
        4
 70
     0
 43
0.0
 10
1375.3200000003
 20
1060.46
 10
1360.9200000003
 20
1083.5
 10
1375.3200000003
 20
1083.5
 10
1375.3200000003
 20
1060.46
  0
LINE
  5
4D5E
330
A
100
AcDbEntity
  8
LEVEL001
  6
Continuous
 62
     3
100
AcDbLine
 10
1360.9200000003
 20
1083.5
 30
0.0
 11
1375.3200000003
 21
1060.46
 31
0.0
  0
LWPOLYLINE
  5
4D5F
330
A
100
AcDbEntity
  8
LEVEL001
  6
Continuous
 62
     3
100
AcDbPolyline
 90
        3
 70
     0
 43
0.0
 10
1329.5600000003
 20
1052.78
 10
1309.0800000003
 20
1083.5
 10
1329.5600000003
 20
1114.219999999999
  0
LINE
  5
4D60
330
A
100
AcDbEntity
  8
LEVEL001
  6
Continuous
 62
     3
100
AcDbLine
 10
1329.5600000003
 20
1114.219999999999
 30
0.0
 11
1346.8400000003
 21
1114.219999999999
 31
0.0
  0
LWPOLYLINE
  5
4D61
330
A
100
AcDbEntity
  8
LEVEL001
  6
Continuous
 62
     3
100
AcDbPolyline
 90
        3
 70
     0
 43
0.0
 10
1346.8400000003
 20
1114.219999999999
 10
1326.3600000003
 20
1083.5
 10
1346.8400000003
 20
1052.78
  0
LINE
  5
4D62
330
A
100
AcDbEntity
  8
LEVEL001
  6
Continuous
 62
     3
100
AcDbLine
 10
1346.8400000003
 20
1052.78
 30
0.0
 11
1329.5600000003
 21
1052.78
 31
0.0
  0
LWPOLYLINE
  5
4D63
330
A
100
AcDbEntity
  8
LEVEL001
  6
Continuous
 62
     3
100
AcDbPolyline
 90
        3
 70
     0
 43
0.0
 10
1355.4800000003
 20
1052.78
 10
1335.0000000003
 20
1083.5
 10
1355.4800000003
 20
1114.219999999999
  0
LINE
  5
4D64
330
A
100
AcDbEntity
  8
LEVEL001
  6
Continuous
 62
     3
100
AcDbLine
 10
1355.4800000003
 20
1114.219999999999
 30
0.0
 11
1372.7600000003
 21
1114.219999999999
 31
0.0
  0
LWPOLYLINE
  5
4D65
330
A
100
AcDbEntity
  8
LEVEL001
  6
Continuous
 62
     3
100
AcDbPolyline
 90
        3
 70
     0
 43
0.0
 10
1372.7600000003
 20
1114.219999999999
 10
1352.2800000003
 20
1083.5
 10
1372.7600000003
 20
1052.78
  0
LINE
  5
4D66
330
A
100
AcDbEntity
  8
LEVEL001
  6
Continuous
 62
     3
100
AcDbLine
 10
1372.7600000003
 20
1052.78
 30
0.0
 11
1355.4800000003
 21
1052.78
 31
0.0
  0
TEXT
  5
A87A
330
A
100
AcDbEntity
  8
LEVEL001
 62
     8
100
AcDbText
 10
1532.2400000001
 20
190.666666666671
 30
0.0
 40
8.0
  1
平成３０年　７月１９日
 41
0.8
 72
     1
 11
1573.2000000001
 21
194.666666666671
 31
0.0
100
AcDbText
 73
     2
  0
TEXT
  5
A87B
330
A
100
AcDbEntity
  8
LEVEL001
 62
     8
100
AcDbText
 10
1532.2400000001
 20
164.0000000000009
 30
0.0
 40
8.0
  1
平成　　年　　月　　日
 41
0.8
 72
     1
 11
1573.2000000001
 21
168.0000000000009
 31
0.0
100
AcDbText
 73
     2
  0
TEXT
  5
A87C
330
A
100
AcDbEntity
  8
LEVEL001
 62
     8
100
AcDbText
 10
1494.2000000001
 20
80.5
 30
0.0
 40
15.0
  1
ＧＳＫ３Ｆ－４
 41
0.8
 72
     1
 11
1543.0000000001
 21
88.0
 31
0.0
100
AcDbText
 73
     2
  0
TEXT
  5
A87D
330
A
100
AcDbEntity
  8
LEVEL001
 62
     8
100
AcDbText
 10
1532.2400000001
 20
137.3333333333312
 30
0.0
 40
8.0
  1
平成　　年　　月　　日
 41
0.8
 72
     1
 11
1573.2000000001
 21
141.3333333333312
 31
0.0
100
AcDbText
 73
     2
  0
ENDSEC
  0
SECTION
  2
OBJECTS
  0
DICTIONARY
  5
3D
330
0
100
AcDbDictionary
281
     1
  3
ACAD_CIP_PREVIOUS_PRODUCT_INFO
350
3DF0
  3
ACAD_COLOR
350
37EF
  3
ACAD_GROUP
350
3E
  3
ACAD_LAYOUT
350
37F2
  3
ACAD_MATERIAL
350
37EE
  3
ACAD_MLEADERSTYLE
350
3DEB
  3
ACAD_MLINESTYLE
350
3F
  3
ACAD_PLOTSETTINGS
350
37F3
  3
ACAD_PLOTSTYLENAME
350
37EC
  3
ACAD_SCALELIST
350
3DD9
  3
ACAD_TABLESTYLE
350
37F0
  3
ACAD_VISUALSTYLE
350
3DC0
  3
ACDB_RECOMPOSE_DATA
350
1453A
  3
AcDbVariableDictionary
350
380C
  3
DWGPROPS
350
1453B
  0
DICTIONARY
  5
4CA3
330
68
100
AcDbDictionary
280
     1
281
     1
  3
ACAD_LAYERSTATES
360
4CA4
  0
DICTIONARY
  5
473F
330
38
100
AcDbDictionary
280
     1
281
     1
  3
ADSK_XREC_LAYER_RECONCILED
360
4740
  0
DICTIONARY
  5
4741
330
39
100
AcDbDictionary
280
     1
281
     1
  3
ADSK_XREC_LAYER_RECONCILED
360
4742
  0
DICTIONARY
  5
474C
330
474B
100
AcDbDictionary
280
     1
281
     1
  0
DICTIONARY
  5
474E
330
474D
100
AcDbDictionary
280
     1
281
     1
  0
DICTIONARY
  5
4750
330
474F
100
AcDbDictionary
280
     1
281
     1
  0
DICTIONARY
  5
4752
330
4751
100
AcDbDictionary
280
     1
281
     1
  0
DICTIONARY
  5
37FA
330
A
100
AcDbDictionary
280
     1
281
     1
  3
ACAD_SORTENTS
360
37FB
  0
XRECORD
  5
3DF0
102
{ACAD_REACTORS
330
3D
102
}
330
3D
100
AcDbXrecord
280
     1
300
ACDLT
300
2012
300
ACDLT_F_S
  0
DICTIONARY
  5
37EF
102
{ACAD_REACTORS
330
3D
102
}
330
3D
100
AcDbDictionary
281
     1
  0
DICTIONARY
  5
3E
102
{ACAD_REACTORS
330
3D
102
}
330
0
100
AcDbDictionary
281
     1
  0
DICTIONARY
  5
37F2
102
{ACAD_REACTORS
330
3D
102
}
330
3D
100
AcDbDictionary
281
     1
  3
Model
350
37F4
  3
レイアウト1
350
37F5
  0
DICTIONARY
  5
37EE
102
{ACAD_REACTORS
330
3D
102
}
330
3D
100
AcDbDictionary
281
     1
  3
ByBlock
350
3DB0
  3
ByLayer
350
3DA8
  3
Global
350
3DB8
  0
DICTIONARY
  5
3DEB
102
{ACAD_REACTORS
330
3D
102
}
330
3D
100
AcDbDictionary
281
     1
  3
Standard
350
3DEC
  0
DICTIONARY
  5
3F
102
{ACAD_REACTORS
330
3D
102
}
330
0
100
AcDbDictionary
281
     1
  3
STANDARD
350
40
  0
DICTIONARY
  5
37F3
102
{ACAD_REACTORS
330
3D
102
}
330
3D
100
AcDbDictionary
281
     1
  0
ACDBDICTIONARYWDFLT
  5
37EC
102
{ACAD_REACTORS
330
3D
102
}
330
3D
100
AcDbDictionary
281
     1
  3
Normal
350
37ED
100
AcDbDictionaryWithDefault
340
37ED
  0
DICTIONARY
  5
3DD9
102
{ACAD_REACTORS
330
3D
102
}
330
3D
100
AcDbDictionary
281
     1
  3
A0
350
3DDA
  3
A1
350
3DDB
  3
A2
350
3DDC
  3
A3
350
3DDD
  3
A4
350
3DDE
  3
A5
350
3DDF
  3
A6
350
3DE0
  3
A7
350
3DE1
  3
A8
350
3DE2
  3
A9
350
3DE3
  3
B0
350
3DE4
  3
B1
350
3DE5
  3
B2
350
3DE6
  3
B3
350
3DE7
  3
B4
350
3DE8
  3
B5
350
3DE9
  3
B6
350
3DEA
  0
DICTIONARY
  5
37F0
102
{ACAD_REACTORS
330
3D
102
}
330
3D
100
AcDbDictionary
281
     1
  3
Standard
350
37F1
  0
DICTIONARY
  5
3DC0
102
{ACAD_REACTORS
330
3D
102
}
330
3D
100
AcDbDictionary
281
     1
  3
2dWireframe
350
3DC6
  3
Basic
350
3DC5
  3
Brighten
350
3DCC
  3
ColorChange
350
3DD0
  3
Conceptual
350
3DC9
  3
Dim
350
3DCB
  3
EdgeColorOff
350
3DD8
  3
Facepattern
350
3DCF
  3
Flat
350
3DC1
  3
FlatWithEdges
350
3DC2
  3
Gouraud
350
3DC3
  3
GouraudWithEdges
350
3DC4
  3
Hidden
350
3DC8
  3
JitterOff
350
3DD6
  3
Linepattern
350
3DCE
  3
OverhangOff
350
3DD7
  3
Realistic
350
3DCA
  3
Shaded
350
3DD5
  3
Shaded with edges
350
3DD4
  3
Shades of Gray
350
3DD1
  3
Sketchy
350
3DD2
  3
Thicken
350
3DCD
  3
Wireframe
350
3DC7
  3
X-Ray
350
3DD3
  0
XRECORD
  5
1453A
102
{ACAD_REACTORS
330
3D
102
}
330
3D
100
AcDbXrecord
280
     1
 90
        1
330
37F1
  0
DICTIONARY
  5
380C
102
{ACAD_REACTORS
330
3D
102
}
330
3D
100
AcDbDictionary
281
     1
  3
CANNOSCALE
350
4DD1
  3
CMLEADERSTYLE
350
4DCF
  3
CTABLESTYLE
350
380D
  3
DIMASSOC
350
3868
  3
INDEXCTL
350
14534
  3
LAYEREVAL
350
4DD3
  3
LAYERNOTIFY
350
4DD4
  3
LIGHTINGUNITS
350
4DD2
  3
MSLTSCALE
350
4DD0
  3
PROJECTNAME
350
3869
  3
SORTENTS
350
14533
  3
XCLIPFRAME
350
14535
  0
XRECORD
  5
1453B
102
{ACAD_REACTORS
330
3D
102
}
330
3D
100
AcDbXrecord
280
     1
  1
DWGPROPS COOKIE
  2

  3

  4

  6

  7

  8
kg-paltec
  9

300
=
301
=
302
=
303
=
304
=
305
=
306
=
307
=
308
=
309
=
 40
0.3947598148148148
 41
2451212.682759178
 42
2458321.551321308
  1

 90
        0
  0
DICTIONARY
  5
4CA4
102
{ACAD_REACTORS
330
4CA3
102
}
330
4CA3
100
AcDbDictionary
281
     1
  0
XRECORD
  5
4740
102
{ACAD_REACTORS
330
473F
102
}
330
473F
100
AcDbXrecord
280
     1
290
     1
  0
XRECORD
  5
4742
102
{ACAD_REACTORS
330
4741
102
}
330
4741
100
AcDbXrecord
280
     1
290
     1
  0
SORTENTSTABLE
  5
37FB
102
{ACAD_REACTORS
330
37FA
102
}
330
37FA
100
AcDbSortentsTable
330
A
331
1880
  5
18A4
331
1863
  5
1874
331
3293
  5
32AD
331
18D3
  5
18F8
331
186C
  5
187D
331
1889
  5
18BD
331
1948
  5
1959
331
18DC
  5
18FD
331
18F1
  5
1913
331
195D
  5
197B
331
1875
  5
1886
331
18A2
  5
18CF
331
197A
  5
198E
331
3CDB
  5
3CEC
331
19D2
  5
19EC
331
1983
  5
1994
331
18FA
  5
191D
331
1934
  5
1945
331
1951
  5
1962
331
19BD
  5
19CF
331
3CE4
  5
3CF5
331
19F8
  5
1A14
331
1A15
  5
1A26
331
1A32
  5
1A43
331
198C
  5
19A6
331
193D
  5
194E
331
19DB
  5
19F6
331
1A1E
  5
1A2F
331
19CF
  5
19E0
331
1A3B
  5
1A4C
331
1995
  5
19B0
331
1A27
  5
1A38
331
1A44
  5
1A59
331
19ED
  5
1A09
331
1A0A
  5
1A1C
331
2C42
  5
2C53
331
175A
  5
1797
331
2CB7
  5
2CCA
331
2C4B
  5
2C5C
331
17AD
  5
17BE
331
17CA
  5
17FB
331
174E
  5
1766
331
1763
  5
1799
331
2D17
  5
2D2B
331
1805
  5
1816
331
1757
  5
1794
331
1799
  5
17AA
331
17B6
  5
17D0
331
1822
  5
1837
331
2D28
  5
2D3C
331
32B8
  5
32CD
331
17F1
  5
1807
331
17A2
  5
17B3
331
17BF
  5
17F1
331
182B
  5
183C
331
2D0C
  5
2D20
331
32DE
  5
32F7
331
32C1
  5
32D6
331
32A4
  5
32BD
331
1834
  5
1849
331
1851
  5
1867
331
17FA
  5
180C
331
32AD
  5
32C6
331
32CA
  5
32DF
331
32E7
  5
3303
331
183D
  5
185B
331
32D3
  5
32E8
331
32F0
  5
3310
331
3B43
  5
3B54
331
1A4C
  5
1A61
331
3B4C
  5
3B5D
331
3B55
  5
3B8F
331
3B5E
  5
3B98
331
3289
  5
32A3
331
1862
  5
1873
331
187F
  5
18A3
331
3292
  5
32AC
331
18D2
  5
18F3
331
186B
  5
187C
331
1888
  5
18BC
331
195C
  5
197A
331
18F0
  5
1912
331
1874
  5
1885
331
18DB
  5
18FC
331
1947
  5
1958
331
3CDA
  5
3CEB
331
1982
  5
1993
331
1916
  5
193A
331
1933
  5
1944
331
1950
  5
1961
331
19BC
  5
19CE
331
18F9
  5
191C
331
19D1
  5
19E7
331
3CE3
  5
3CF4
331
1A14
  5
1A25
331
1A31
  5
1A42
331
19A8
  5
19C4
331
19C5
  5
19D7
331
19DA
  5
19F5
331
193C
  5
194D
331
198B
  5
19A5
331
19F7
  5
1A13
331
1A3A
  5
1A4B
331
19CE
  5
19DF
331
1994
  5
19AF
331
1A1D
  5
1A2E
331
19EC
  5
1A08
331
1A09
  5
1A1B
331
1A26
  5
1A37
331
1A43
  5
1A58
331
1759
  5
1796
331
1A2F
  5
1A40
331
29D8
  5
29F3
331
17C9
  5
17FA
331
17AC
  5
17BD
331
2D50
  5
2D65
331
2D16
  5
2D2A
331
2C70
  5
2C82
331
2CDC
  5
2CF0
331
1804
  5
1815
331
1798
  5
17A9
331
17B5
  5
17CB
331
1821
  5
1836
331
1756
  5
1793
331
2D1F
  5
2D33
331
2D3C
  5
2D50
331
2CC8
  5
2CDB
331
182A
  5
183B
331
17A1
  5
17B2
331
17BE
  5
17F0
331
1784
  5
179F
331
17F0
  5
1806
331
2D0B
  5
2D1F
331
32DD
  5
32F2
331
32C0
  5
32D5
331
32A3
  5
32BC
331
1833
  5
1844
331
1850
  5
1866
331
17F9
  5
180B
331
32C9
  5
32DE
331
32AC
  5
32C5
331
32E6
  5
3302
331
181F
  5
1834
331
183C
  5
1855
331
32D2
  5
32E7
331
32EF
  5
330F
331
3B42
  5
3B53
331
1A4B
  5
1A60
331
3B4B
  5
3B5C
331
3B54
  5
3B8E
331
3B5D
  5
3B97
331
3288
  5
32A2
331
1861
  5
1872
331
187E
  5
18A2
331
3291
  5
32AB
331
1887
  5
18BB
331
18D1
  5
18F2
331
186A
  5
187B
331
1978
  5
198D
331
1946
  5
1957
331
18BD
  5
18E2
331
18DA
  5
18FB
331
1873
  5
1884
331
18EF
  5
1911
331
195B
  5
1978
331
3CD9
  5
3CEA
331
19BB
  5
19CD
331
19D0
  5
19E6
331
1932
  5
1943
331
194F
  5
1960
331
18F8
  5
1916
331
1915
  5
1939
331
1981
  5
1992
331
3CE2
  5
3CF3
331
1A30
  5
1A41
331
19C4
  5
19D6
331
19D9
  5
19F4
331
19F6
  5
1A12
331
198A
  5
19A4
331
191E
  5
193D
331
193B
  5
194C
331
19A7
  5
19C3
331
1A13
  5
1A24
331
1A1C
  5
1A2D
331
1993
  5
19AE
331
19B0
  5
19CC
331
19CD
  5
19DE
331
1A39
  5
1A4A
331
1A08
  5
1A1A
331
1A25
  5
1A36
331
1A42
  5
1A57
331
1758
  5
1795
331
1A2E
  5
1A3F
331
17AB
  5
17BC
331
17C8
  5
17F9
331
2D15
  5
2D29
331
2CBE
  5
2CD1
331
2C52
  5
2C63
331
1797
  5
17A8
331
17B4
  5
17CA
331
1820
  5
1835
331
1755
  5
1792
331
2D3B
  5
2D4F
331
2D60
  5
2D75
331
2CC7
  5
2CDA
331
2CE4
  5
2CF8
331
2D1E
  5
2D32
331
3299
  5
32B3
331
1829
  5
183A
331
17BD
  5
17EB
331
17DA
  5
1800
331
17A0
  5
17B1
331
2CED
  5
2D01
331
2D0A
  5
2D1E
331
2D2F
  5
2D43
331
32DC
  5
32F1
331
32BF
  5
32D4
331
32A2
  5
32BB
331
184F
  5
1865
331
17F8
  5
180A
331
1832
  5
1843
331
32C8
  5
32DD
331
32E5
  5
3301
331
32AB
  5
32C4
331
181E
  5
1833
331
183B
  5
1854
331
32EE
  5
330E
331
32D1
  5
32E6
331
3B41
  5
3B52
331
1A4A
  5
1A5F
331
3B4A
  5
3B5B
331
3B53
  5
3B8D
331
3B3F
  5
3B50
331
3B5C
  5
3B96
331
187D
  5
188E
331
1860
  5
1871
331
3290
  5
32AA
331
3BAA
  5
3BE2
331
18D0
  5
18F1
331
1869
  5
187A
331
1886
  5
18BA
331
1945
  5
1956
331
18D9
  5
18FA
331
18EE
  5
1910
331
195A
  5
1975
331
1872
  5
1883
331
18BC
  5
18DD
331
3CD8
  5
3CE9
331
1980
  5
1991
331
199D
  5
19BD
331
1914
  5
1938
331
1931
  5
1942
331
194E
  5
195F
331
3CE1
  5
3CF2
331
19D8
  5
19F2
331
19F5
  5
1A11
331
1A12
  5
1A23
331
196C
  5
1988
331
1989
  5
19A3
331
19A6
  5
19C2
331
191D
  5
193C
331
193A
  5
194B
331
1957
  5
1972
331
19C3
  5
19D5
331
1A1B
  5
1A2C
331
1992
  5
19AD
331
19AF
  5
19CB
331
19CC
  5
19DD
331
1A38
  5
1A49
331
1975
  5
198C
331
29E1
  5
29FE
331
1A24
  5
1A35
331
1A41
  5
1A56
331
1A07
  5
1A19
331
2C5C
  5
2C6D
331
1A2D
  5
1A3E
331
2C9F
  5
2CB2
331
2C33
  5
2C44
331
17AA
  5
17BB
331
29DF
  5
29F4
331
2D14
  5
2D28
331
17B3
  5
17C9
331
17D0
  5
17FD
331
17E5
  5
1803
331
1754
  5
178C
331
1796
  5
17A7
331
1802
  5
1813
331
2D1D
  5
2D31
331
2CC6
  5
2CD9
331
2D3A
  5
2D4E
331
3298
  5
32B2
331
179F
  5
17B0
331
17BC
  5
17EA
331
2D09
  5
2D1D
331
32DB
  5
32F0
331
32A1
  5
32BA
331
32BE
  5
32D3
331
17F7
  5
1809
331
1831
  5
1842
331
2D71
  5
2D8A
331
32C7
  5
32DC
331
32AA
  5
32C3
331
32E4
  5
3300
331
181D
  5
1832
331
183A
  5
1853
331
32B3
  5
32CC
331
32D0
  5
32E5
331
32ED
  5
330D
331
3B40
  5
3B51
331
1A49
  5
1A5E
331
3B49
  5
3B5A
331
3B52
  5
3B8C
331
3B5B
  5
3B95
331
185F
  5
1870
331
187C
  5
188D
331
328F
  5
32A9
331
3BA9
  5
3BE1
331
18CF
  5
18F0
331
1868
  5
1879
331
1885
  5
18B1
331
1959
  5
1974
331
18ED
  5
190F
331
1927
  5
193E
331
1871
  5
1882
331
188E
  5
18CE
331
18BB
  5
18DC
331
18D8
  5
18F9
331
1944
  5
1955
331
3CD7
  5
3CE8
331
199C
  5
19BC
331
1913
  5
1937
331
1930
  5
1941
331
194D
  5
195E
331
1962
  5
1983
331
3CE0
  5
3CF1
331
19F4
  5
1A0F
331
1A11
  5
1A22
331
19A5
  5
19C1
331
19C2
  5
19D4
331
19D7
  5
19F1
331
1939
  5
194A
331
1956
  5
196C
331
196B
  5
1987
331
18FF
  5
1930
331
191C
  5
193B
331
1988
  5
19A2
331
1A1A
  5
1A2B
331
1A37
  5
1A48
331
19CB
  5
19DC
331
19E0
  5
1A05
331
1974
  5
198B
331
1991
  5
19AC
331
19AE
  5
19CA
331
29E0
  5
29F5
331
1A40
  5
1A55
331
1A06
  5
1A18
331
1A23
  5
1A34
331
2C5B
  5
2C6C
331
2C78
  5
2C8A
331
1A0F
  5
1A21
331
1A2C
  5
1A3D
331
2C81
  5
2C93
331
178C
  5
17A2
331
17A9
  5
17BA
331
2D13
  5
2D27
331
17E4
  5
1802
331
1801
  5
1812
331
1768
  5
179E
331
1795
  5
17A6
331
17B2
  5
17C8
331
1753
  5
178B
331
2D1C
  5
2D30
331
2D39
  5
2D4D
331
179E
  5
17AF
331
17BB
  5
17E5
331
1844
  5
1862
331
2D67
  5
2D7C
331
2D08
  5
2D1C
331
32BD
  5
32D2
331
32A0
  5
32B9
331
32DA
  5
32EF
331
1830
  5
1841
331
17F6
  5
1808
331
17A7
  5
17B8
331
2D70
  5
2D89
331
32C6
  5
32DB
331
32A9
  5
32C2
331
32E3
  5
32FF
331
1839
  5
1852
331
181C
  5
1831
331
32EC
  5
330C
331
32CF
  5
32E4
331
32B2
  5
32CB
331
1A48
  5
1A5D
331
3B48
  5
3B59
331
3B51
  5
3B8B
331
3B5A
  5
3B94
331
185E
  5
186F
331
187B
  5
188C
331
328E
  5
32A8
331
18E3
  5
1900
331
1900
  5
1931
331
1867
  5
1878
331
1884
  5
18B0
331
18B1
  5
18DA
331
18CE
  5
18EF
331
3297
  5
32B1
331
1943
  5
1954
331
188D
  5
18CD
331
18BA
  5
18DB
331
1870
  5
1881
331
18EC
  5
1906
331
1958
  5
1973
331
192F
  5
1940
331
194C
  5
195D
331
1961
  5
1982
331
18C3
  5
18EC
331
1912
  5
1936
331
197E
  5
1990
331
3CDF
  5
3CF0
331
19C1
  5
19D3
331
19D6
  5
19F0
331
1955
  5
196B
331
196A
  5
1986
331
1987
  5
199D
331
18FE
  5
192F
331
1938
  5
1949
331
19A4
  5
19C0
331
19DF
  5
19FA
331
1A19
  5
1A2A
331
1973
  5
198A
331
1990
  5
19AB
331
19AD
  5
19C9
331
19CA
  5
19DB
331
1A36
  5
1A47
331
1A05
  5
1A17
331
1A22
  5
1A33
331
1A3F
  5
1A54
331
2C5A
  5
2C6B
331
1740
  5
1764
331
1A2B
  5
1A3C
331
1A0E
  5
1A20
331
178B
  5
17A1
331
17A8
  5
17B9
331
2D12
  5
2D26
331
2CA6
  5
2CB9
331
1800
  5
1811
331
1794
  5
17A5
331
17B1
  5
17C2
331
1752
  5
178A
331
1767
  5
179D
331
2D1B
  5
2D2F
331
2D38
  5
2D4C
331
2CFE
  5
2D12
331
2C92
  5
2CA4
331
17BA
  5
17E4
331
1843
  5
1861
331
179D
  5
17AE
331
32D9
  5
32EE
331
32BC
  5
32D1
331
329F
  5
32B8
331
17A6
  5
17B7
331
182F
  5
1840
331
2D6F
  5
2D88
331
32E2
  5
32FE
331
32C5
  5
32DA
331
32A8
  5
32C1
331
181B
  5
1830
331
1838
  5
1851
331
1855
  5
186B
331
32EB
  5
330B
331
32CE
  5
32E3
331
32B1
  5
32CA
331
32D7
  5
32EC
331
3B47
  5
3B58
331
3B50
  5
3B8A
331
3B59
  5
3B93
331
187A
  5
188B
331
185D
  5
186E
331
328D
  5
32A7
331
18B0
  5
18D9
331
18CD
  5
18EE
331
18E2
  5
18FF
331
1866
  5
1877
331
1883
  5
18AF
331
3296
  5
32B0
331
1942
  5
1953
331
186F
  5
1880
331
188C
  5
18CC
331
194B
  5
195C
331
1960
  5
1981
331
1911
  5
1935
331
18A5
  5
18D2
331
18C2
  5
18E3
331
192E
  5
193F
331
3CDE
  5
3CEF
331
19D5
  5
19EF
331
19F2
  5
1A0E
331
1969
  5
1985
331
1986
  5
199C
331
19A3
  5
19BF
331
18FD
  5
192E
331
1937
  5
1948
331
1954
  5
196A
331
19C0
  5
19D2
331
1A18
  5
1A29
331
1A35
  5
1A46
331
198F
  5
19AA
331
19AC
  5
19C8
331
19C9
  5
19DA
331
1972
  5
1989
331
19DE
  5
19F9
331
1A21
  5
1A32
331
1A3E
  5
1A53
331
19E7
  5
1A07
331
1A47
  5
1A5C
331
1A0D
  5
1A1F
331
1A2A
  5
1A3B
331
178A
  5
17A0
331
2CF4
  5
2D08
331
2C88
  5
2C9A
331
2D11
  5
2D25
331
17B0
  5
17C1
331
1751
  5
1784
331
1766
  5
179C
331
1793
  5
17A4
331
2CFD
  5
2D11
331
2D1A
  5
2D2E
331
2C91
  5
2CA3
331
2CAE
  5
2CC1
331
2D37
  5
2D4B
331
1842
  5
1860
331
17EB
  5
1805
331
179C
  5
17AD
331
17B9
  5
17DF
331
32D8
  5
32ED
331
32BB
  5
32D0
331
1811
  5
1822
331
182E
  5
183F
331
17A5
  5
17B6
331
17C2
  5
17F8
331
17DF
  5
1801
331
2D49
  5
2D5E
331
2D0F
  5
2D23
331
32E1
  5
32FD
331
32C4
  5
32D9
331
32A7
  5
32C0
331
1837
  5
1850
331
1854
  5
186A
331
17FD
  5
180F
331
32EA
  5
330A
331
32B0
  5
32C9
331
32CD
  5
32E2
331
32D6
  5
32EB
331
3B46
  5
3B57
331
3B4F
  5
3B89
331
3B58
  5
3B92
331
3283
  5
32A1
331
185C
  5
186D
331
1879
  5
188A
331
328C
  5
32A6
331
18CC
  5
18ED
331
1865
  5
1876
331
1882
  5
18AE
331
18AF
  5
18D8
331
3295
  5
32AF
331
1941
  5
1952
331
186E
  5
187F
331
188B
  5
18C3
331
195F
  5
1980
331
1910
  5
1934
331
194A
  5
195B
331
18A4
  5
18D1
331
1877
  5
1888
331
18F3
  5
1915
331
3CDD
  5
3CEE
331
19F1
  5
1A0D
331
1985
  5
1996
331
19A2
  5
19BE
331
19BF
  5
19D1
331
1936
  5
1947
331
1953
  5
1969
331
18FC
  5
1927
331
1968
  5
1984
331
19D4
  5
19EE
331
3CE6
  5
3D0B
331
1A17
  5
1A28
331
1A34
  5
1A45
331
19AB
  5
19C7
331
19C8
  5
19D9
331
19DD
  5
19F8
331
193F
  5
1950
331
198E
  5
19A8
331
19FA
  5
1A16
331
1A3D
  5
1A52
331
19E6
  5
1A06
331
1A20
  5
1A31
331
19EF
  5
1A0B
331
1A0C
  5
1A1E
331
1A29
  5
1A3A
331
1A46
  5
1A5B
331
1747
  5
1765
331
2D10
  5
2D24
331
1765
  5
179B
331
1792
  5
17A3
331
17AF
  5
17C0
331
1750
  5
1768
331
2CFC
  5
2D10
331
2D19
  5
2D2D
331
2C90
  5
2CA2
331
17EA
  5
1804
331
1824
  5
1839
331
179B
  5
17AC
331
17B8
  5
17DA
331
17D5
  5
17FE
331
1841
  5
185F
331
32BA
  5
32CF
331
17A4
  5
17B5
331
17C1
  5
17F7
331
182D
  5
183E
331
184A
  5
1864
331
2D0E
  5
2D22
331
32E0
  5
32F9
331
32C3
  5
32D8
331
32A6
  5
32BF
331
1836
  5
184F
331
1853
  5
1869
331
17FC
  5
180E
331
1819
  5
182E
331
32E9
  5
3309
331
32CC
  5
32E1
331
32AF
  5
32C8
331
183F
  5
185D
331
32D5
  5
32EA
331
3B45
  5
3B56
331
3B4E
  5
3B5F
331
3B57
  5
3B91
331
185B
  5
186C
331
1878
  5
1889
331
328B
  5
32A5
331
1864
  5
1875
331
1881
  5
18A5
331
18AE
  5
18D3
331
3294
  5
32AE
331
188A
  5
18C2
331
1906
  5
1932
331
1940
  5
1951
331
186D
  5
187E
331
1949
  5
195A
331
195E
  5
197E
331
18DD
  5
18FE
331
18F2
  5
1914
331
1876
  5
1887
331
18A3
  5
18D0
331
190F
  5
1933
331
197B
  5
198F
331
3CDC
  5
3CED
331
19BE
  5
19D0
331
19D3
  5
19ED
331
1952
  5
1968
331
1984
  5
1995
331
19F0
  5
1A0C
331
18FB
  5
191E
331
1935
  5
1946
331
3CE5
  5
3CF6
331
1A33
  5
1A44
331
19C7
  5
19D8
331
19DC
  5
19F7
331
19F9
  5
1A15
331
198D
  5
19A7
331
193E
  5
194F
331
19AA
  5
19C5
331
1A16
  5
1A27
331
1996
  5
19BB
331
1A1F
  5
1A30
331
1A3C
  5
1A4D
331
2C3A
  5
2C4B
331
1A0B
  5
1A1D
331
1A28
  5
1A39
331
1A45
  5
1A5A
331
19EE
  5
1A0A
331
29D1
  5
29F2
331
175B
  5
1798
331
2C69
  5
2C7B
331
2CD5
  5
2CE9
331
17AE
  5
17BF
331
17CB
  5
17FC
331
174F
  5
1767
331
1764
  5
179A
331
2D18
  5
2D2C
331
17B7
  5
17D5
331
1823
  5
1838
331
1840
  5
185E
331
179A
  5
17AB
331
32B9
  5
32CE
331
182C
  5
183D
331
1849
  5
1863
331
17A3
  5
17B4
331
17C0
  5
17F6
331
2D0D
  5
2D21
331
32DF
  5
32F8
331
32C2
  5
32D7
331
32A5
  5
32BE
331
1852
  5
1868
331
17FB
  5
180D
331
1818
  5
182D
331
1835
  5
184A
331
32E8
  5
3304
331
32AE
  5
32C7
331
32CB
  5
32E0
331
183E
  5
185C
331
32D4
  5
32E9
331
32F1
  5
3311
331
3B44
  5
3B55
331
1A4D
  5
1A62
331
3B4D
  5
3B5E
331
3B56
  5
3B90
331
328A
  5
32A4
331
3B5F
  5
3B99
  0
LAYOUT
  5
37F4
102
{ACAD_XDICTIONARY
360
4CA9
102
}
102
{ACAD_REACTORS
330
37F2
102
}
330
37F2
100
AcDbPlotSettings
  1

  2
クセロPDF2
  4
A4
  6

 40
3.174999952316284
 41
3.174999952316284
 42
3.175003051757812
 43
3.17498779296875
 44
209.9733276367187
 45
296.9259948730469
 46
0.0
 47
0.0
 48
0.0
 49
0.0
140
0.0
141
0.0
142
1.0
143
1469.220105060981
 70
 11952
 72
     0
 73
     1
 74
     0
  7

 75
     0
147
0.0006806332125155
148
192124.0556615123
149
1341.521742125432
100
AcDbLayout
  1
Model
 70
     1
 71
     0
 10
0.0
 20
0.0
 11
12.0
 21
9.0
 12
0.0
 22
0.0
 32
0.0
 14
0.0
 24
0.0
 34
0.0
 15
0.0
 25
0.0
 35
0.0
146
0.0
 13
0.0
 23
0.0
 33
0.0
 16
1.0
 26
0.0
 36
0.0
 17
0.0
 27
1.0
 37
0.0
 76
     0
330
A
331
3DA1
1001
ACAD_PSEXT
1000
クセロPDF2
1000
XeloPDF2
1000
Xelo PDF Port2
1000

1070
     0
  0
LAYOUT
  5
37F5
102
{ACAD_XDICTIONARY
360
1453E
102
}
102
{ACAD_REACTORS
330
37F2
102
}
330
37F2
100
AcDbPlotSettings
  1

  2
クセロPDF2
  4

  6

 40
0.0
 41
0.0
 42
0.0
 43
0.0
 44
0.0
 45
0.0
 46
0.0
 47
0.0
 48
0.0
 49
0.0
140
0.0
141
0.0
142
1.0
143
1.0
 70
   688
 72
     0
 73
     0
 74
     5
  7

 75
    16
147
1.0
148
0.0
149
0.0
100
AcDbLayout
  1
レイアウト1
 70
     1
 71
     1
 10
0.0
 20
0.0
 11
12.0
 21
9.0
 12
0.0
 22
0.0
 32
0.0
 14
1.000000000000000E+20
 24
1.000000000000000E+20
 34
1.000000000000000E+20
 15
-1.000000000000000E+20
 25
-1.000000000000000E+20
 35
-1.000000000000000E+20
146
0.0
 13
0.0
 23
0.0
 33
0.0
 16
1.0
 26
0.0
 36
0.0
 17
0.0
 27
1.0
 37
0.0
 76
     0
330
B
  0
MATERIAL
  5
3DB0
102
{ACAD_XDICTIONARY
360
3DB1
102
}
102
{ACAD_REACTORS
330
37EE
102
}
330
37EE
100
AcDbMaterial
  1
ByBlock
 72
     0
 43
0.0208333333333333
 43
0.0
 43
0.0
 43
0.0
 43
0.0
 43
0.0208333333333333
 43
0.0
 43
0.0
 43
0.0
 43
0.0
 43
1.0
 43
0.0
 43
0.0
 43
0.0
 43
0.0
 43
1.0
 77
     0
 47
0.0208333333333333
 47
0.0
 47
0.0
 47
0.0
 47
0.0
 47
0.0208333333333333
 47
0.0
 47
0.0
 47
0.0
 47
0.0
 47
1.0
 47
0.0
 47
0.0
 47
0.0
 47
0.0
 47
1.0
171
     0
 49
0.0208333333333333
 49
0.0
 49
0.0
 49
0.0
 49
0.0
 49
0.0208333333333333
 49
0.0
 49
0.0
 49
0.0
 49
0.0
 49
1.0
 49
0.0
 49
0.0
 49
0.0
 49
0.0
 49
1.0
175
     0
142
0.0208333333333333
142
0.0
142
0.0
142
0.0
142
0.0
142
0.0208333333333333
142
0.0
142
0.0
142
0.0
142
0.0
142
1.0
142
0.0
142
0.0
142
0.0
142
0.0
142
1.0
179
     0
144
0.0208333333333333
144
0.0
144
0.0
144
0.0
144
0.0
144
0.0208333333333333
144
0.0
144
0.0
144
0.0
144
0.0
144
1.0
144
0.0
144
0.0
144
0.0
144
0.0
144
1.0
147
0.0208333333333333
147
0.0
147
0.0
147
0.0
147
0.0
147
0.0208333333333333
147
0.0
147
0.0
147
0.0
147
0.0
147
1.0
147
0.0
147
0.0
147
0.0
147
0.0
147
1.0
  0
MATERIAL
  5
3DA8
102
{ACAD_XDICTIONARY
360
3DA9
102
}
102
{ACAD_REACTORS
330
37EE
102
}
330
37EE
100
AcDbMaterial
  1
ByLayer
 72
     0
 43
0.0208333333333333
 43
0.0
 43
0.0
 43
0.0
 43
0.0
 43
0.0208333333333333
 43
0.0
 43
0.0
 43
0.0
 43
0.0
 43
1.0
 43
0.0
 43
0.0
 43
0.0
 43
0.0
 43
1.0
 77
     0
 47
0.0208333333333333
 47
0.0
 47
0.0
 47
0.0
 47
0.0
 47
0.0208333333333333
 47
0.0
 47
0.0
 47
0.0
 47
0.0
 47
1.0
 47
0.0
 47
0.0
 47
0.0
 47
0.0
 47
1.0
171
     0
 49
0.0208333333333333
 49
0.0
 49
0.0
 49
0.0
 49
0.0
 49
0.0208333333333333
 49
0.0
 49
0.0
 49
0.0
 49
0.0
 49
1.0
 49
0.0
 49
0.0
 49
0.0
 49
0.0
 49
1.0
175
     0
142
0.0208333333333333
142
0.0
142
0.0
142
0.0
142
0.0
142
0.0208333333333333
142
0.0
142
0.0
142
0.0
142
0.0
142
1.0
142
0.0
142
0.0
142
0.0
142
0.0
142
1.0
179
     0
144
0.0208333333333333
144
0.0
144
0.0
144
0.0
144
0.0
144
0.0208333333333333
144
0.0
144
0.0
144
0.0
144
0.0
144
1.0
144
0.0
144
0.0
144
0.0
144
0.0
144
1.0
147
0.0208333333333333
147
0.0
147
0.0
147
0.0
147
0.0
147
0.0208333333333333
147
0.0
147
0.0
147
0.0
147
0.0
147
1.0
147
0.0
147
0.0
147
0.0
147
0.0
147
1.0
  0
MATERIAL
  5
3DB8
102
{ACAD_XDICTIONARY
360
3DB9
102
}
102
{ACAD_REACTORS
330
37EE
102
}
330
37EE
100
AcDbMaterial
  1
Global
 72
     0
 43
0.0208333333333333
 43
0.0
 43
0.0
 43
0.0
 43
0.0
 43
0.0208333333333333
 43
0.0
 43
0.0
 43
0.0
 43
0.0
 43
1.0
 43
0.0
 43
0.0
 43
0.0
 43
0.0
 43
1.0
 77
     0
 47
0.0208333333333333
 47
0.0
 47
0.0
 47
0.0
 47
0.0
 47
0.0208333333333333
 47
0.0
 47
0.0
 47
0.0
 47
0.0
 47
1.0
 47
0.0
 47
0.0
 47
0.0
 47
0.0
 47
1.0
171
     0
 49
0.0208333333333333
 49
0.0
 49
0.0
 49
0.0
 49
0.0
 49
0.0208333333333333
 49
0.0
 49
0.0
 49
0.0
 49
0.0
 49
1.0
 49
0.0
 49
0.0
 49
0.0
 49
0.0
 49
1.0
175
     0
142
0.0208333333333333
142
0.0
142
0.0
142
0.0
142
0.0
142
0.0208333333333333
142
0.0
142
0.0
142
0.0
142
0.0
142
1.0
142
0.0
142
0.0
142
0.0
142
0.0
142
1.0
179
     0
144
0.0208333333333333
144
0.0
144
0.0
144
0.0
144
0.0
144
0.0208333333333333
144
0.0
144
0.0
144
0.0
144
0.0
144
1.0
144
0.0
144
0.0
144
0.0
144
0.0
144
1.0
147
0.0208333333333333
147
0.0
147
0.0
147
0.0
147
0.0
147
0.0208333333333333
147
0.0
147
0.0
147
0.0
147
0.0
147
1.0
147
0.0
147
0.0
147
0.0
147
0.0
147
1.0
  0
MLEADERSTYLE
  5
3DEC
102
{ACAD_XDICTIONARY
360
14538
102
}
102
{ACAD_REACTORS
330
3DEB
102
}
330
3DEB
100
AcDbMLeaderStyle
170
     2
171
     1
172
     0
 90
        2
 40
0.0
 41
0.0
173
     1
 91
-1056964608
340
1D
 92
       -2
290
     1
 42
0.09
291
     1
 43
0.36
  3
Standard
 44
0.18
300

342
7
174
     1
178
     6
175
     1
176
     0
 93
-1056964608
 45
0.18
292
     0
297
     0
 46
0.18
 94
-1056964608
 47
1.0
 49
1.0
140
1.0
293
     1
141
0.0
294
     1
177
     0
142
1.0
295
     0
296
     0
143
0.125
1001
ACAD_MLEADERVER
1070
     2
  0
MLINESTYLE
  5
40
102
{ACAD_REACTORS
330
3F
102
}
330
0
100
AcDbMlineStyle
  2
STANDARD
 70
     0
  3

 62
   256
 51
90.0
 52
90.0
 71
     2
 49
0.5
 62
   256
  6
BYLAYER
 49
-0.5
 62
   256
  6
BYLAYER
  0
ACDBPLACEHOLDER
  5
37ED
102
{ACAD_REACTORS
330
37EC
102
}
330
37EC
  0
SCALE
  5
3DDA
102
{ACAD_REACTORS
330
3DD9
102
}
330
3DD9
100
AcDbScale
 70
     0
300
1:1
140
1.0
141
1.0
290
     1
  0
SCALE
  5
3DDB
102
{ACAD_REACTORS
330
3DD9
102
}
330
3DD9
100
AcDbScale
 70
     0
300
1/128" = 1'-0"
140
0.0078125
141
12.0
290
     0
  0
SCALE
  5
3DDC
102
{ACAD_REACTORS
330
3DD9
102
}
330
3DD9
100
AcDbScale
 70
     0
300
1/64" = 1'-0"
140
0.015625
141
12.0
290
     0
  0
SCALE
  5
3DDD
102
{ACAD_REACTORS
330
3DD9
102
}
330
3DD9
100
AcDbScale
 70
     0
300
1/32" = 1'-0"
140
0.03125
141
12.0
290
     0
  0
SCALE
  5
3DDE
102
{ACAD_REACTORS
330
3DD9
102
}
330
3DD9
100
AcDbScale
 70
     0
300
1/16" = 1'-0"
140
0.0625
141
12.0
290
     0
  0
SCALE
  5
3DDF
102
{ACAD_REACTORS
330
3DD9
102
}
330
3DD9
100
AcDbScale
 70
     0
300
3/32" = 1'-0"
140
0.09375
141
12.0
290
     0
  0
SCALE
  5
3DE0
102
{ACAD_REACTORS
330
3DD9
102
}
330
3DD9
100
AcDbScale
 70
     0
300
1/8" = 1'-0"
140
0.125
141
12.0
290
     0
  0
SCALE
  5
3DE1
102
{ACAD_REACTORS
330
3DD9
102
}
330
3DD9
100
AcDbScale
 70
     0
300
3/16" = 1'-0"
140
0.1875
141
12.0
290
     0
  0
SCALE
  5
3DE2
102
{ACAD_REACTORS
330
3DD9
102
}
330
3DD9
100
AcDbScale
 70
     0
300
1/4" = 1'-0"
140
0.25
141
12.0
290
     0
  0
SCALE
  5
3DE3
102
{ACAD_REACTORS
330
3DD9
102
}
330
3DD9
100
AcDbScale
 70
     0
300
3/8" = 1'-0"
140
0.375
141
12.0
290
     0
  0
SCALE
  5
3DE4
102
{ACAD_REACTORS
330
3DD9
102
}
330
3DD9
100
AcDbScale
 70
     0
300
1/2" = 1'-0"
140
0.5
141
12.0
290
     0
  0
SCALE
  5
3DE5
102
{ACAD_REACTORS
330
3DD9
102
}
330
3DD9
100
AcDbScale
 70
     0
300
3/4" = 1'-0"
140
0.75
141
12.0
290
     0
  0
SCALE
  5
3DE6
102
{ACAD_REACTORS
330
3DD9
102
}
330
3DD9
100
AcDbScale
 70
     0
300
1" = 1'-0"
140
1.0
141
12.0
290
     0
  0
SCALE
  5
3DE7
102
{ACAD_REACTORS
330
3DD9
102
}
330
3DD9
100
AcDbScale
 70
     0
300
1-1/2" = 1'-0"
140
1.5
141
12.0
290
     0
  0
SCALE
  5
3DE8
102
{ACAD_REACTORS
330
3DD9
102
}
330
3DD9
100
AcDbScale
 70
     0
300
3" = 1'-0"
140
3.0
141
12.0
290
     0
  0
SCALE
  5
3DE9
102
{ACAD_REACTORS
330
3DD9
102
}
330
3DD9
100
AcDbScale
 70
     0
300
6" = 1'-0"
140
6.0
141
12.0
290
     0
  0
SCALE
  5
3DEA
102
{ACAD_REACTORS
330
3DD9
102
}
330
3DD9
100
AcDbScale
 70
     0
300
1'-0" = 1'-0"
140
12.0
141
12.0
290
     0
  0
TABLESTYLE
  5
37F1
102
{ACAD_XDICTIONARY
360
14536
102
}
102
{ACAD_REACTORS
330
37F0
102
}
330
37F0
100
AcDbTableStyle
  3
Standard
 70
     0
 71
     0
 40
0.06
 41
0.06
280
     0
281
     0
  7
STANDARD
140
0.18
170
     2
 62
     0
 63
     7
283
     0
274
    -2
284
     1
 64
     0
275
    -2
285
     1
 65
     0
276
    -2
286
     1
 66
     0
277
    -2
287
     1
 67
     0
278
    -2
288
     1
 68
     0
279
    -2
289
     1
 69
     0
  7
STANDARD
140
0.25
170
     5
 62
     0
 63
     7
283
     0
274
    -2
284
     1
 64
     0
275
    -2
285
     1
 65
     0
276
    -2
286
     1
 66
     0
277
    -2
287
     1
 67
     0
278
    -2
288
     1
 68
     0
279
    -2
289
     1
 69
     0
  7
STANDARD
140
0.18
170
     5
 62
     0
 63
     7
283
     0
274
    -2
284
     1
 64
     0
275
    -2
285
     1
 65
     0
276
    -2
286
     1
 66
     0
277
    -2
287
     1
 67
     0
278
    -2
288
     1
 68
     0
279
    -2
289
     1
 69
     0
  0
VISUALSTYLE
  5
3DC6
102
{ACAD_XDICTIONARY
360
1454D
102
}
102
{ACAD_REACTORS
330
3DC0
102
}
330
3DC0
100
AcDbVisualStyle
  2
2dWireframe
 70
     4
 71
     0
 72
     2
 73
     0
 90
        0
 40
-0.6
 41
-30.0
 62
     5
 63
     7
 74
     1
 91
        4
 64
     7
 65
   257
 75
     1
175
     1
 42
1.0
 92
        0
 66
   257
 43
1.0
 76
     1
 77
     6
 78
     2
 67
     7
 79
     5
170
     0
171
     0
290
     0
174
     0
 93
        1
 44
0.0
173
     0
291
     0
 45
0.0
1001
ACAD
1000
AcDbSavedByObjectVersion
1070
     0
  0
VISUALSTYLE
  5
3DC5
102
{ACAD_XDICTIONARY
360
1454B
102
}
102
{ACAD_REACTORS
330
3DC0
102
}
330
3DC0
100
AcDbVisualStyle
  2
Basic
 70
     7
 71
     1
 72
     0
 73
     1
 90
        0
 40
-0.6
 41
-30.0
 62
     5
 63
     7
 74
     0
 91
        4
 64
     7
 65
   257
 75
     1
175
     1
 42
1.0
 92
        8
 66
     7
 43
1.0
 76
     1
 77
     6
 78
     2
 67
     7
 79
     5
170
     0
171
     0
290
     0
174
     0
 93
        1
 44
0.0
173
     0
291
     1
 45
0.0
1001
ACAD
1000
AcDbSavedByObjectVersion
1070
     0
  0
VISUALSTYLE
  5
3DCC
102
{ACAD_XDICTIONARY
360
14559
102
}
102
{ACAD_REACTORS
330
3DC0
102
}
330
3DC0
100
AcDbVisualStyle
  2
Brighten
 70
    12
 71
     2
 72
     2
 73
     0
 90
        0
 40
-0.6
 41
-30.0
 62
     5
 63
     7
 74
     1
 91
        4
 64
     7
 65
   257
 75
     1
175
     1
 42
1.0
 92
        8
 66
     7
 43
1.0
 76
     1
 77
     6
 78
     2
 67
     7
 79
     5
170
     0
171
     0
290
     0
174
     0
 93
        1
 44
50.0
173
     0
291
     1
 45
0.0
1001
ACAD
1000
AcDbSavedByObjectVersion
1070
     0
  0
VISUALSTYLE
  5
3DD0
102
{ACAD_XDICTIONARY
360
14561
102
}
102
{ACAD_REACTORS
330
3DC0
102
}
330
3DC0
100
AcDbVisualStyle
  2
ColorChange
 70
    16
 71
     2
 72
     2
 73
     3
 90
        0
 40
-0.6
 41
-30.0
 62
     5
 63
     8
 74
     1
 91
        4
 64
     7
 65
   257
 75
     1
175
     1
 42
1.0
 92
        8
 66
     8
 43
1.0
 76
     1
 77
     6
 78
     2
 67
     7
 79
     5
170
     0
171
     0
290
     0
174
     0
 93
        1
 44
0.0
173
     0
291
     1
 45
0.0
1001
ACAD
1000
AcDbSavedByObjectVersion
1070
     0
  0
VISUALSTYLE
  5
3DC9
102
{ACAD_XDICTIONARY
360
14553
102
}
102
{ACAD_REACTORS
330
3DC0
102
}
330
3DC0
100
AcDbVisualStyle
  2
Conceptual
 70
     9
 71
     3
 72
     2
 73
     0
 90
        0
 40
-0.6
 41
-30.0
 62
     5
 63
     7
 74
     2
 91
        2
 64
     7
 65
   257
 75
     1
175
     1
 42
179.0
 92
        8
 66
     7
 43
1.0
 76
     1
 77
     6
 78
     2
 67
     7
 79
     3
170
     0
171
     0
290
     0
174
     0
 93
        1
 44
0.0
173
     0
291
     0
 45
0.0
1001
ACAD
1000
AcDbSavedByObjectVersion
1070
     0
  0
VISUALSTYLE
  5
3DCB
102
{ACAD_XDICTIONARY
360
14557
102
}
102
{ACAD_REACTORS
330
3DC0
102
}
330
3DC0
100
AcDbVisualStyle
  2
Dim
 70
    11
 71
     2
 72
     2
 73
     0
 90
        0
 40
-0.6
 41
-30.0
 62
     5
 63
     7
 74
     1
 91
        4
 64
     7
 65
   257
 75
     1
175
     1
 42
1.0
 92
        8
 66
     7
 43
1.0
 76
     1
 77
     6
 78
     2
 67
     7
 79
     5
170
     0
171
     0
290
     0
174
     0
 93
        1
 44
-50.0
173
     0
291
     1
 45
0.0
1001
ACAD
1000
AcDbSavedByObjectVersion
1070
     0
  0
VISUALSTYLE
  5
3DD8
102
{ACAD_XDICTIONARY
360
14571
102
}
102
{ACAD_REACTORS
330
3DC0
102
}
330
3DC0
100
AcDbVisualStyle
  2
EdgeColorOff
 70
    22
 71
     2
 72
     2
 73
     0
 90
        0
 40
-0.6
 41
-30.0
 62
     5
 63
     7
 74
     1
 91
        4
 64
     7
 65
   257
 75
     1
175
     1
 42
1.0
 92
        8
 66
     7
 43
1.0
 76
     1
 77
     6
 78
     2
 67
     7
 79
     5
170
     0
171
     0
290
     0
174
     0
 93
        1
 44
0.0
173
     0
291
     1
 45
0.0
1001
ACAD
1000
AcDbSavedByObjectVersion
1070
     0
  0
VISUALSTYLE
  5
3DCF
102
{ACAD_XDICTIONARY
360
1455F
102
}
102
{ACAD_REACTORS
330
3DC0
102
}
330
3DC0
100
AcDbVisualStyle
  2
Facepattern
 70
    15
 71
     2
 72
     2
 73
     0
 90
        0
 40
-0.6
 41
-30.0
 62
     5
 63
     7
 74
     1
 91
        4
 64
     7
 65
   257
 75
     1
175
     1
 42
1.0
 92
        8
 66
     7
 43
1.0
 76
     1
 77
     6
 78
     2
 67
     7
 79
     5
170
     0
171
     0
290
     0
174
     0
 93
        1
 44
0.0
173
     0
291
     1
 45
0.0
1001
ACAD
1000
AcDbSavedByObjectVersion
1070
     0
  0
VISUALSTYLE
  5
3DC1
102
{ACAD_XDICTIONARY
360
14543
102
}
102
{ACAD_REACTORS
330
3DC0
102
}
330
3DC0
100
AcDbVisualStyle
  2
Flat
 70
     0
 71
     2
 72
     1
 73
     1
 90
        2
 40
-0.6
 41
30.0
 62
     5
 63
     7
 74
     0
 91
        0
 64
     7
 65
   257
 75
     1
175
     1
 42
1.0
 92
        8
 66
     7
 43
1.0
 76
     1
 77
     6
 78
     2
 67
     7
 79
     5
170
     0
171
     0
290
     0
174
     0
 93
       13
 44
0.0
173
     0
291
     1
 45
0.0
1001
ACAD
1000
AcDbSavedByObjectVersion
1070
     0
  0
VISUALSTYLE
  5
3DC2
102
{ACAD_XDICTIONARY
360
14545
102
}
102
{ACAD_REACTORS
330
3DC0
102
}
330
3DC0
100
AcDbVisualStyle
  2
FlatWithEdges
 70
     1
 71
     2
 72
     1
 73
     1
 90
        2
 40
-0.6
 41
30.0
 62
     5
 63
     7
 74
     1
 91
        0
 64
     7
 65
   257
 75
     1
175
     1
 42
1.0
 92
        0
 66
   257
 43
1.0
 76
     1
 77
     6
 78
     2
 67
     7
 79
     5
170
     0
171
     0
290
     0
174
     0
 93
       13
 44
0.0
173
     0
291
     1
 45
0.0
1001
ACAD
1000
AcDbSavedByObjectVersion
1070
     0
  0
VISUALSTYLE
  5
3DC3
102
{ACAD_XDICTIONARY
360
14547
102
}
102
{ACAD_REACTORS
330
3DC0
102
}
330
3DC0
100
AcDbVisualStyle
  2
Gouraud
 70
     2
 71
     2
 72
     2
 73
     1
 90
        2
 40
-0.6
 41
30.0
 62
     5
 63
     7
 74
     0
 91
        0
 64
     7
 65
   257
 75
     1
175
     1
 42
1.0
 92
        0
 66
     7
 43
1.0
 76
     1
 77
     6
 78
     2
 67
     7
 79
     5
170
     0
171
     0
290
     0
174
     0
 93
       13
 44
0.0
173
     0
291
     1
 45
0.0
1001
ACAD
1000
AcDbSavedByObjectVersion
1070
     0
  0
VISUALSTYLE
  5
3DC4
102
{ACAD_XDICTIONARY
360
14549
102
}
102
{ACAD_REACTORS
330
3DC0
102
}
330
3DC0
100
AcDbVisualStyle
  2
GouraudWithEdges
 70
     3
 71
     2
 72
     2
 73
     1
 90
        2
 40
-0.6
 41
30.0
 62
     5
 63
     7
 74
     1
 91
        0
 64
     7
 65
   257
 75
     1
175
     1
 42
1.0
 92
        0
 66
   257
 43
1.0
 76
     1
 77
     6
 78
     2
 67
     7
 79
     5
170
     0
171
     0
290
     0
174
     0
 93
       13
 44
0.0
173
     0
291
     1
 45
0.0
1001
ACAD
1000
AcDbSavedByObjectVersion
1070
     0
  0
VISUALSTYLE
  5
3DC8
102
{ACAD_XDICTIONARY
360
14551
102
}
102
{ACAD_REACTORS
330
3DC0
102
}
330
3DC0
100
AcDbVisualStyle
  2
Hidden
 70
     6
 71
     1
 72
     2
 73
     2
 90
        0
 40
-0.6
 41
-30.0
 62
     5
 63
     7
 74
     2
 91
        2
 64
     7
 65
   257
 75
     2
175
     1
 42
40.0
 92
        0
 66
   257
 43
1.0
 76
     1
 77
     6
 78
     2
 67
     7
 79
     3
170
     0
171
     0
290
     0
174
     0
 93
        1
 44
0.0
173
     0
291
     0
 45
0.0
1001
ACAD
1000
AcDbSavedByObjectVersion
1070
     0
  0
VISUALSTYLE
  5
3DD6
102
{ACAD_XDICTIONARY
360
1456D
102
}
102
{ACAD_REACTORS
330
3DC0
102
}
330
3DC0
100
AcDbVisualStyle
  2
JitterOff
 70
    20
 71
     2
 72
     2
 73
     0
 90
        0
 40
-0.6
 41
-30.0
 62
     5
 63
     7
 74
     1
 91
        4
 64
     7
 65
   257
 75
     1
175
     1
 42
1.0
 92
       10
 66
     7
 43
1.0
 76
     1
 77
     6
 78
     2
 67
     7
 79
     5
170
     0
171
     0
290
     0
174
     0
 93
        1
 44
0.0
173
     0
291
     1
 45
0.0
1001
ACAD
1000
AcDbSavedByObjectVersion
1070
     0
  0
VISUALSTYLE
  5
3DCE
102
{ACAD_XDICTIONARY
360
1455D
102
}
102
{ACAD_REACTORS
330
3DC0
102
}
330
3DC0
100
AcDbVisualStyle
  2
Linepattern
 70
    14
 71
     2
 72
     2
 73
     0
 90
        0
 40
-0.6
 41
-30.0
 62
     5
 63
     7
 74
     1
 91
        4
 64
     7
 65
   257
 75
     7
175
     7
 42
1.0
 92
        8
 66
     7
 43
1.0
 76
     1
 77
     6
 78
     2
 67
     7
 79
     5
170
     0
171
     0
290
     0
174
     0
 93
        1
 44
0.0
173
     0
291
     1
 45
0.0
1001
ACAD
1000
AcDbSavedByObjectVersion
1070
     0
  0
VISUALSTYLE
  5
3DD7
102
{ACAD_XDICTIONARY
360
1456F
102
}
102
{ACAD_REACTORS
330
3DC0
102
}
330
3DC0
100
AcDbVisualStyle
  2
OverhangOff
 70
    21
 71
     2
 72
     2
 73
     0
 90
        0
 40
-0.6
 41
-30.0
 62
     5
 63
     7
 74
     1
 91
        4
 64
     7
 65
   257
 75
     1
175
     1
 42
1.0
 92
        9
 66
     7
 43
1.0
 76
     1
 77
     6
 78
     2
 67
     7
 79
     5
170
     0
171
     0
290
     0
174
     0
 93
        1
 44
0.0
173
     0
291
     1
 45
0.0
1001
ACAD
1000
AcDbSavedByObjectVersion
1070
     0
  0
VISUALSTYLE
  5
3DCA
102
{ACAD_XDICTIONARY
360
14555
102
}
102
{ACAD_REACTORS
330
3DC0
102
}
330
3DC0
100
AcDbVisualStyle
  2
Realistic
 70
     8
 71
     2
 72
     3
 73
     0
 90
        2
 40
-0.6
 41
30.0
 62
     5
 63
     7
 74
     0
 91
        0
 64
     7
 65
   257
 75
     1
175
     1
 42
1.0
 92
        8
 66
   257
 43
1.0
 76
     1
 77
     6
 78
     2
 67
     7
 79
     3
170
     0
171
     0
290
     0
174
     0
 93
       13
 44
0.0
173
     0
291
     0
 45
0.0
1001
ACAD
1000
AcDbSavedByObjectVersion
1070
     0
  0
VISUALSTYLE
  5
3DD5
102
{ACAD_XDICTIONARY
360
1456B
102
}
102
{ACAD_REACTORS
330
3DC0
102
}
330
3DC0
100
AcDbVisualStyle
  2
Shaded
 70
    27
 71
     2
 72
     2
 73
     1
 90
        2
 40
-0.6
 41
30.0
 62
     5
 63
     7
 74
     0
 91
        4
 64
     7
 65
   257
 75
     1
175
     1
 42
1.0
 92
        8
 66
   257
 43
1.0
 76
     1
 77
     6
 78
     2
 67
     8
 79
     3
170
     0
171
     0
290
     0
174
     0
 93
        5
 44
0.0
173
     0
291
     0
 45
0.0
1001
ACAD
1000
AcDbSavedByObjectVersion
1070
     0
  0
VISUALSTYLE
  5
3DD4
102
{ACAD_XDICTIONARY
360
14569
102
}
102
{ACAD_REACTORS
330
3DC0
102
}
330
3DC0
100
AcDbVisualStyle
  2
Shaded with edges
 70
    26
 71
     2
 72
     2
 73
     1
 90
        2
 40
-0.6
 41
30.0
 62
     5
 63
     7
 74
     1
 91
       10
 64
     7
 65
   257
 75
     2
175
     1
 42
1.0
 92
        8
 66
   257
 43
1.0
 76
     1
 77
     6
 78
     2
 67
     7
 79
     3
170
     0
171
     0
290
     0
174
     0
 93
        5
 44
0.0
173
     0
291
     0
 45
0.0
1001
ACAD
1000
AcDbSavedByObjectVersion
1070
     0
  0
VISUALSTYLE
  5
3DD1
102
{ACAD_XDICTIONARY
360
14563
102
}
102
{ACAD_REACTORS
330
3DC0
102
}
330
3DC0
100
AcDbVisualStyle
  2
Shades of Gray
 70
    23
 71
     2
 72
     2
 73
     3
 90
        0
 40
-0.6
 41
-30.0
 62
     5
 63
     7
 74
     2
 91
        2
 64
     7
 65
     7
 75
     1
175
     1
 42
40.0
 92
        8
 66
     7
 43
1.0
 76
     1
 77
     6
 78
     2
 67
     7
 79
     3
170
     0
171
     0
290
     0
174
     0
 93
        1
 44
0.0
173
     0
291
     0
 45
0.0
1001
ACAD
1000
AcDbSavedByObjectVersion
1070
     0
  0
VISUALSTYLE
  5
3DD2
102
{ACAD_XDICTIONARY
360
14565
102
}
102
{ACAD_REACTORS
330
3DC0
102
}
330
3DC0
100
AcDbVisualStyle
  2
Sketchy
 70
    24
 71
     1
 72
     2
 73
     2
 90
        0
 40
-0.6
 41
-30.0
 62
     5
 63
     7
 74
     2
 91
        2
 64
     7
 65
     7
 75
     1
175
     1
 42
40.0
 92
       11
 66
     7
 43
1.0
 76
     1
 77
     6
 78
     2
 67
     7
 79
     6
170
     0
171
     0
290
     0
174
     0
 93
        1
 44
0.0
173
     0
291
     0
 45
0.0
1001
ACAD
1000
AcDbSavedByObjectVersion
1070
     0
  0
VISUALSTYLE
  5
3DCD
102
{ACAD_XDICTIONARY
360
1455B
102
}
102
{ACAD_REACTORS
330
3DC0
102
}
330
3DC0
100
AcDbVisualStyle
  2
Thicken
 70
    13
 71
     2
 72
     2
 73
     0
 90
        0
 40
-0.6
 41
-30.0
 62
     5
 63
     7
 74
     1
 91
        4
 64
     7
 65
   257
 75
     1
175
     1
 42
1.0
 92
       12
 66
     7
 43
1.0
 76
     1
 77
     6
 78
     2
 67
     7
 79
     5
170
     0
171
     0
290
     0
174
     0
 93
        1
 44
0.0
173
     0
291
     1
 45
0.0
1001
ACAD
1000
AcDbSavedByObjectVersion
1070
     0
  0
VISUALSTYLE
  5
3DC7
102
{ACAD_XDICTIONARY
360
1454F
102
}
102
{ACAD_REACTORS
330
3DC0
102
}
330
3DC0
100
AcDbVisualStyle
  2
Wireframe
 70
     5
 71
     0
 72
     2
 73
     0
 90
        0
 40
-0.6
 41
-30.0
 62
     5
 63
     7
 74
     1
 91
        4
 64
     7
 65
   257
 75
     1
175
     1
 42
1.0
 92
        0
 66
   257
 43
1.0
 76
     1
 77
     6
 78
     2
 67
     7
 79
     3
170
     0
171
     0
290
     0
174
     0
 93
        1
 44
0.0
173
     0
291
     0
 45
0.0
1001
ACAD
1000
AcDbSavedByObjectVersion
1070
     0
  0
VISUALSTYLE
  5
3DD3
102
{ACAD_XDICTIONARY
360
14567
102
}
102
{ACAD_REACTORS
330
3DC0
102
}
330
3DC0
100
AcDbVisualStyle
  2
X-Ray
 70
    25
 71
     2
 72
     2
 73
     1
 90
        1
 40
0.5
 41
-30.0
 62
     5
 63
     7
 74
     1
 91
        0
 64
     7
 65
   257
 75
     1
175
     1
 42
1.0
 92
        8
 66
     7
 43
1.0
 76
     1
 77
     6
 78
     2
 67
     7
 79
     3
170
     0
171
     0
290
     0
174
     0
 93
       13
 44
0.0
173
     0
291
     0
 45
0.0
1001
ACAD
1000
AcDbSavedByObjectVersion
1070
     0
  0
DICTIONARYVAR
  5
4DD1
102
{ACAD_REACTORS
330
380C
102
}
330
380C
100
DictionaryVariables
280
     0
  1
1:1
  0
DICTIONARYVAR
  5
4DCF
102
{ACAD_REACTORS
330
380C
102
}
330
380C
100
DictionaryVariables
280
     0
  1
STANDARD
  0
DICTIONARYVAR
  5
380D
102
{ACAD_REACTORS
330
380C
102
}
330
380C
100
DictionaryVariables
280
     0
  1
STANDARD
  0
DICTIONARYVAR
  5
3868
102
{ACAD_REACTORS
330
380C
102
}
330
380C
100
DictionaryVariables
280
     0
  1
1
  0
DICTIONARYVAR
  5
14534
102
{ACAD_REACTORS
330
380C
102
}
330
380C
100
DictionaryVariables
280
     0
  1
0
  0
DICTIONARYVAR
  5
4DD3
102
{ACAD_REACTORS
330
380C
102
}
330
380C
100
DictionaryVariables
280
     0
  1
1
  0
DICTIONARYVAR
  5
4DD4
102
{ACAD_REACTORS
330
380C
102
}
330
380C
100
DictionaryVariables
280
     0
  1
15
  0
DICTIONARYVAR
  5
4DD2
102
{ACAD_REACTORS
330
380C
102
}
330
380C
100
DictionaryVariables
280
     0
  1
0
  0
DICTIONARYVAR
  5
4DD0
102
{ACAD_REACTORS
330
380C
102
}
330
380C
100
DictionaryVariables
280
     0
  1
0
  0
DICTIONARYVAR
  5
3869
102
{ACAD_REACTORS
330
380C
102
}
330
380C
100
DictionaryVariables
280
     0
  1

  0
DICTIONARYVAR
  5
14533
102
{ACAD_REACTORS
330
380C
102
}
330
380C
100
DictionaryVariables
280
     0
  1
127
  0
DICTIONARYVAR
  5
14535
102
{ACAD_REACTORS
330
380C
102
}
330
380C
100
DictionaryVariables
280
     0
  1
2
  0
DICTIONARY
  5
4CA9
330
37F4
100
AcDbDictionary
280
     1
281
     1
  3
ACAD_XREC_ROUNDTRIP
360
1453D
  3
ADSK_XREC_LAYOUTTHUMBNAIL
360
4CAA
  0
DICTIONARY
  5
1453E
330
37F5
100
AcDbDictionary
280
     1
281
     1
  3
ACAD_XREC_ROUNDTRIP
360
1453F
  0
DICTIONARY
  5
3DB1
330
3DB0
100
AcDbDictionary
280
     1
281
     1
  3
ACAD_XREC_ROUNDTRIP
360
14541
  3
BUMPTILE
360
3DB3
  3
DIFFUSETILE
360
3DB2
  3
OPACITYTILE
360
3DB6
  3
REFLECTIONTILE
360
3DB5
  3
REFRACTIONTILE
360
3DB7
  3
SPECULARTILE
360
3DB4
  0
DICTIONARY
  5
3DA9
330
3DA8
100
AcDbDictionary
280
     1
281
     1
  3
ACAD_XREC_ROUNDTRIP
360
14540
  3
BUMPTILE
360
3DAB
  3
DIFFUSETILE
360
3DAA
  3
OPACITYTILE
360
3DAE
  3
REFLECTIONTILE
360
3DAD
  3
REFRACTIONTILE
360
3DAF
  3
SPECULARTILE
360
3DAC
  0
DICTIONARY
  5
3DB9
330
3DB8
100
AcDbDictionary
280
     1
281
     1
  3
ACAD_XREC_ROUNDTRIP
360
14542
  3
BUMPTILE
360
3DBB
  3
DIFFUSETILE
360
3DBA
  3
OPACITYTILE
360
3DBE
  3
REFLECTIONTILE
360
3DBD
  3
REFRACTIONTILE
360
3DBF
  3
SPECULARTILE
360
3DBC
  0
DICTIONARY
  5
14538
330
3DEC
100
AcDbDictionary
280
     1
281
     1
  3
ACAD_XREC_ROUNDTRIP
360
14539
  0
DICTIONARY
  5
14536
330
37F1
100
AcDbDictionary
280
     1
281
     1
  3
ACAD_ROUNDTRIP_2008_TABLESTYLE_CELLSTYLEMAP
360
14537
  3
ACAD_XREC_ROUNDTRIP
360
1453C
  0
DICTIONARY
  5
1454D
330
3DC6
100
AcDbDictionary
280
     1
281
     1
  3
ACAD_XREC_ROUNDTRIP
360
1454E
  0
DICTIONARY
  5
1454B
330
3DC5
100
AcDbDictionary
280
     1
281
     1
  3
ACAD_XREC_ROUNDTRIP
360
1454C
  0
DICTIONARY
  5
14559
330
3DCC
100
AcDbDictionary
280
     1
281
     1
  3
ACAD_XREC_ROUNDTRIP
360
1455A
  0
DICTIONARY
  5
14561
330
3DD0
100
AcDbDictionary
280
     1
281
     1
  3
ACAD_XREC_ROUNDTRIP
360
14562
  0
DICTIONARY
  5
14553
330
3DC9
100
AcDbDictionary
280
     1
281
     1
  3
ACAD_XREC_ROUNDTRIP
360
14554
  0
DICTIONARY
  5
14557
330
3DCB
100
AcDbDictionary
280
     1
281
     1
  3
ACAD_XREC_ROUNDTRIP
360
14558
  0
DICTIONARY
  5
14571
330
3DD8
100
AcDbDictionary
280
     1
281
     1
  3
ACAD_XREC_ROUNDTRIP
360
14572
  0
DICTIONARY
  5
1455F
330
3DCF
100
AcDbDictionary
280
     1
281
     1
  3
ACAD_XREC_ROUNDTRIP
360
14560
  0
DICTIONARY
  5
14543
330
3DC1
100
AcDbDictionary
280
     1
281
     1
  3
ACAD_XREC_ROUNDTRIP
360
14544
  0
DICTIONARY
  5
14545
330
3DC2
100
AcDbDictionary
280
     1
281
     1
  3
ACAD_XREC_ROUNDTRIP
360
14546
  0
DICTIONARY
  5
14547
330
3DC3
100
AcDbDictionary
280
     1
281
     1
  3
ACAD_XREC_ROUNDTRIP
360
14548
  0
DICTIONARY
  5
14549
330
3DC4
100
AcDbDictionary
280
     1
281
     1
  3
ACAD_XREC_ROUNDTRIP
360
1454A
  0
DICTIONARY
  5
14551
330
3DC8
100
AcDbDictionary
280
     1
281
     1
  3
ACAD_XREC_ROUNDTRIP
360
14552
  0
DICTIONARY
  5
1456D
330
3DD6
100
AcDbDictionary
280
     1
281
     1
  3
ACAD_XREC_ROUNDTRIP
360
1456E
  0
DICTIONARY
  5
1455D
330
3DCE
100
AcDbDictionary
280
     1
281
     1
  3
ACAD_XREC_ROUNDTRIP
360
1455E
  0
DICTIONARY
  5
1456F
330
3DD7
100
AcDbDictionary
280
     1
281
     1
  3
ACAD_XREC_ROUNDTRIP
360
14570
  0
DICTIONARY
  5
14555
330
3DCA
100
AcDbDictionary
280
     1
281
     1
  3
ACAD_XREC_ROUNDTRIP
360
14556
  0
DICTIONARY
  5
1456B
330
3DD5
100
AcDbDictionary
280
     1
281
     1
  3
ACAD_XREC_ROUNDTRIP
360
1456C
  0
DICTIONARY
  5
14569
330
3DD4
100
AcDbDictionary
280
     1
281
     1
  3
ACAD_XREC_ROUNDTRIP
360
1456A
  0
DICTIONARY
  5
14563
330
3DD1
100
AcDbDictionary
280
     1
281
     1
  3
ACAD_XREC_ROUNDTRIP
360
14564
  0
DICTIONARY
  5
14565
330
3DD2
100
AcDbDictionary
280
     1
281
     1
  3
ACAD_XREC_ROUNDTRIP
360
14566
  0
DICTIONARY
  5
1455B
330
3DCD
100
AcDbDictionary
280
     1
281
     1
  3
ACAD_XREC_ROUNDTRIP
360
1455C
  0
DICTIONARY
  5
1454F
330
3DC7
100
AcDbDictionary
280
     1
281
     1
  3
ACAD_XREC_ROUNDTRIP
360
14550
  0
DICTIONARY
  5
14567
330
3DD3
100
AcDbDictionary
280
     1
281
     1
  3
ACAD_XREC_ROUNDTRIP
360
14568
  0
XRECORD
  5
1453D
102
{ACAD_REACTORS
330
4CA9
102
}
330
4CA9
100
AcDbXrecord
280
     1
102
SHADEPLOT
 70
     0
102
SHADEPLOTRESLEVEL
 70
     2
102
SHADEPLOTCUSTOMDPI
 70
   300
  0
XRECORD
  5
4CAA
102
{ACAD_REACTORS
330
4CA9
102
}
330
4CA9
100
AcDbXrecord
280
     1
310
280000000001000088000000010008000000000000880000000000000000000000010000000000000000000000000000C8C8C8000000000000000000000000000000000000000000000000000000000000000000330000006600000099000000CC000000FF00000000330000333300006633000099330000CC330000FF3300
310
0000660000336600006666000099660000CC660000FF66000000990000339900006699000099990000CC990000FF99000000CC000033CC000066CC000099CC0000CCCC0000FFCC000000FF000033FF000066FF000099FF0000CCFF0000FFFF000000003300330033006600330099003300CC003300FF003300003333003333
310
33006633330099333300CC333300FF33330000663300336633006666330099663300CC663300FF66330000993300339933006699330099993300CC993300FF99330000CC330033CC330066CC330099CC3300CCCC3300FFCC330000FF330033FF330066FF330099FF3300CCFF3300FFFF330000006600330066006600660099
310
006600CC006600FF00660000336600333366006633660099336600CC336600FF33660000666600336666006666660099666600CC666600FF66660000996600339966006699660099996600CC996600FF99660000CC660033CC660066CC660099CC6600CCCC6600FFCC660000FF660033FF660066FF660099FF6600CCFF6600
310
FFFF660000009900330099006600990099009900CC009900FF00990000339900333399006633990099339900CC339900FF33990000669900336699006666990099669900CC669900FF66990000999900339999006699990099999900CC999900FF99990000CC990033CC990066CC990099CC9900CCCC9900FFCC990000FF99
310
0033FF990066FF990099FF9900CCFF9900FFFF99000000CC003300CC006600CC009900CC00CC00CC00FF00CC000033CC003333CC006633CC009933CC00CC33CC00FF33CC000066CC003366CC006666CC009966CC00CC66CC00FF66CC000099CC003399CC006699CC009999CC00CC99CC00FF99CC0000CCCC0033CCCC0066CC
310
CC0099CCCC00CCCCCC00FFCCCC0000FFCC0033FFCC0066FFCC0099FFCC00CCFFCC00FFFFCC000000FF003300FF006600FF009900FF00CC00FF00FF00FF000033FF003333FF006633FF009933FF00CC33FF00FF33FF000066FF003366FF006666FF009966FF00CC66FF00FF66FF000099FF003399FF006699FF009999FF00CC
310
99FF00FF99FF0000CCFF0033CCFF0066CCFF0099CCFF00CCCCFF00FFCCFF0000FFFF0033FFFF0066FFFF0099FFFF00CCFFFF00FFFFFF00000000000D0D0D001A1A1A00282828003535350043434300505050005D5D5D006B6B6B00787878008686860093939300A1A1A100AEAEAE00BBBBBB00C9C9C900D6D6D600E4E4E400
310
F1F1F100FFFFFF000000000000000000000000000000000000000000000000000000000000000000000000000000000000000000000000000000000000000000000000000000000000000000000000000000000000000000000000000000000000000000000000000000000000000000000000000000000000000000000000
310
00000000000000000000000000000000000000000000000000000000000000000000000000000000000000000000000000000000000000000000000000000000000000000000000000000000000000000000000000000000000000000000000000000000000000000000000000000000000000000000000000000000000000
310
00000000000000000000000000000000000000000000000000000000000000000000000000000000000000000000000000000000000000000000000000000000000000000000000000000000000000000000000000000000000000000000000000000000000000000000000000000000000000000000000000000000000000
310
000000000000000000000000F5F5F5F5F5F5F5F5F5F5F5F5F5F5F5F5F5F5F5F5F5F5F5F5F5F5F5F5F5F5F5F5000000000000000000F5F5F5F5F5F5F5F5F5F5F5F5F5F5F5F5F5F5F5F5F5F5F5F5F5F5F5F5F5F5F5F5F50000000000000000F5F5F5F5F5F5F5F5F5F5F5F5F5F5F5F5F5F5F5F5F5F5F5F5F5F5F5F5F5F5F5F5F5
310
00000000000000000000000000000000000000000000000000000000000000000000000000000000000000000000000000000000000000000000000000000000000000000000000000000000000000000000000000000000000000000000000000000000000000000000000000000000000000000000000000000000000000
310
0000000000000000000000000000F5282828282828282828282828282828282828282828282828ECEC28ECECECF5000000000000000000F528282828282828282828282828282828282828282828282828EC28ECECEC00F50000000000000000F528282828282828282828282828282828282828C32828282828EC28ECECEC
310
28F50000000000000000000000000000000000000000000000000000000000000000000000000000000000000000000000000000000000000000000000000000000000000000000000000000000000000000000000000000000000000000000000000000000000000000000000000000000000000000000000000000000000
310
00000000000000000000000000000000F528280000280000C3C300002828000028000000C3C300002828282828ECECF5000000000000000000F528000000280000C3C300000028000028000000C3C300002828282828ECEC00F50000000000000000F528C30FC3C300000F00000000280FC3C3000000C30000002828282828
310
ECECECF5000000000000000000000000000000000000000000000000000000000000000000000000000000000000000000000000000000000000000000000000000000000000000000000000000000000000000000000000000000000000000000000000000000000000000000000000000000000000000000000000000000
310
000000000000000000000000000000000000F5C30FC3C30FC300C3C30000C30FC3C30F0FC300C3C3000028ECEC2828ECECF5000000000000000000F5C30FC3C30FC3C3C3C30000000FC3C30F0FC3C3C3C3000028ECEC0028ECEC00F50000000000000000F528C30FC3C300000FC3C3C3C3C3F50FC3000000C3C3C3C328ECEC
310
EC28ECECECF500000000000000000000000000000000000000000000000000000000000000000000000000000000000000000000000000000000000000000000000000000000000000000000000000000000000000000000000000000000000000000000000000000000000000000000000000000000000000000000000000
310
0000000000000000000000000000000000000000F5C30FBEC30FC3BE0F0FC3C3C30F0FBE0F0FC3BE0F0FC3C3C328ECECEC2828F5000000000000000000F5C30FF5C30FC3C3F5F5BEC3C30F0FC30F0FC3C3C3F5C3C3C328ECECEC282800F50000000000000000F52800C3C3C3C3C3F5C3BEBE0028F5C3C300BEBEC3C3C3C328
310
28ECECEC282828F50000000000000000000000000000000000000000000000000000000000000000000000000000000000000000000000000000000000000000000000000000000000000000000000000000000000000000000000000000000000000000000000000000000000000000000000000000000000000000000000
310
00000000000000000000000000000000000000000000F528BEBEC3C3C3C3C3BEC3C3C328BEBEC3C3C3C3C3C3C3C3C3ECECECECEC28F5000000000000000000F528C3C3C3C3C3C3F5C3C3C3C328C3C3C3C3C3C3C3C3C3C3C3ECECECECEC2800F50000000000000000F52800C3C3C3C300C300C3C3002828C3C3C30000C3C3C3
310
C3ECECECECECEC2828F5000000000000000000000000000000000000000000000000000000000000000000000000000000000000000000000000000000000000000000000000000000000000000000000000000000000000000000000000000000000000000000000000000000000000000000000000000000000000000000
310
000000000000000000000000000000000000000000000000F528C3C3C3C3C3C3C3C3C3C328C3C3C3C3C3C3C3C3C3C3C328282828282828F5000000000000000000F528C3C3C3C3C3C300C3C3C30028C3C3C3C3C3C300C3C3C3C328282828282800F50000000000000000F52800C3C300C3C3C3C3C3C3C328C3C30000C3C3C3
310
C3C3C3ECECECECECEC0028F500000000000000000000000000000000000000000000000000000000000000000000000000000000000000000000000000000000000000000000000000000000000000000000000000000000000000000000000000000000000000000000000000000000000000000000000000000000000000
310
0000000000000000000000000000000000000000000000000000F528C30000C300C3C300C3C3C3C3C30028C30000C300C3C3C3000000000028F5000000000000000000F528C3C300C3C3C3C3C3C3C3C3C3C300C3C3C3C3C3C3C3C3C300000000002800F50000000000000000F52800280000C3C3C3C3C3C3C32828000000BE
310
BEBEBEC3C32800000000000028F50000000000000000000000000000000000000000000000000000000000000000000000000000000000000000000000000000000000000000000000000000000000000000000000000000000000000000000000000000000000000000000000000000000000000000000000000000000000
310
00000000000000000000000000000000000000000000000000000000F528ECECECECECECC3BEC3C3C3ECECECECECECECC3C3C3C3C3000000000028F5000000000000000000F528280000ECECBEBEC3C3C3C3280000ECECECC3C3C3C3C3C300000000002800F50000000000000000F528ECECECEC28280F2828282828ECECEC
310
00BEBEBEBEBEBE2800000000000028F5000000000000000000000000000000000000000000000000000000000000000000000000000000000000000000000000000000000000000000000000000000000000000000000000000000000000000000000000000000000000000000000000000000000000000000000000000000
310
000000000000000000000000000000000000000000000000000000000000F528ECECECECECEC0F0FBEBE28ECECECECECECECF5F5BEBE28000000000028F5000000000000000000F528ECECECECECECF5F5282828ECECECECECECEC0FF5BEBEBE00000000002800F50000000000000000F528000000000000C3000000002800
310
00000028280F2828282800000000000028F500000000000000000000000000000000000000000000000000000000000000000000000000000000000000000000000000000000000000000000000000000000000000000000000000000000000000000000000000000000000000000000000000000000000000000000000000
310
0000000000000000000000000000000000000000000000000000000000000000F528ECECECECEC282828282828ECECECECEC28280F0F282828000000000028F5000000000000000000F528ECECECECEC2828C3282828ECECECECEC28280FF528282800000000002800F50000000000000000F528ECECECECEC282828282828
310
ECECECECECEC2828282828ECECECEC00000028F50000000000000000000000000000000000000000000000000000000000000000000000000000000000000000000000000000000000000000000000000000000000000000000000000000000000000000000000000000000000000000000000000000000000000000000000
310
00000000000000000000000000000000000000000000000000000000000000000000F528ECECECECEC282828282828ECECECECEC28282828282828ECECECEC0028F5000000000000000000F528ECECECECEC282828282828ECECECECEC28282828282828ECECECEC002800F50000000000000000F528ECECECECEC28282828
310
2828ECECECECECEC2828282828ECECECEC00000028F5000000000000000000000000000000000000000000000000000000000000000000000000000000000000000000000000000000000000000000000000000000000000000000000000000000000000000000000000000000000000000000000000000000000000000000
310
000000000000000000000000000000000000000000000000000000000000000000000000F528000000000000C3C300002800000000000000C3C30000ECECECECEC0028F5000000000000000000F52800000000000000000000002800000000000000000000ECECECECEC002800F50000000000000000F528C3C3C3C300000F
310
00000000C3C3C3C3000000C3000000ECECECEC00000028F500000000000000000000000000000000000000000000000000000000000000000000000000000000000000000000000000000000000000000000000000000000000000000000000000000000000000000000000000000000000000000000000000000000000000
310
0000000000000000000000000000000000000000000000000000000000000000000000000000F5C3DCC3C3DCC300C3C30000C3DCC3C3DCC3C300C3C30000ECECECECEC0028F5000000000000000000F5C3C3C3C3C3C3C3C3C3000000C3C3C3C3C3C3C3C3C30000ECECECECEC002800F50000000000000000F528C3DCC3C300
310
000FC3C3C3C3C3F5F5C3000000C3C3C3C3ECECECEC00000028F50000000000000000000000000000000000000000000000000000000000000000000000000000000000000000000000000000000000000000000000000000000000000000000000000000000000000000000000000000000000000000000000000000000000
310
00000000000000000000000000000000000000000000000000000000000000000000000000000000F5C3DCC3C3DCC3000F0FBEC3C3DCF5C3DC7DC300C3C3C3C3C3ECECEC000028F5000000000000000000F5C3DCF5C3DCC3C3F5F500C3C3DC7DC3C3DCC3C3C3F5C3C3C3ECECEC00002800F50000000000000000F528C3C3C3
310
C3C3C3F5C3C3BE00C3F5C3C300BEBEBEBEC3C3ECECECEC00000028F5000000000000000000000000000000000000000000000000000000000000000000000000000000000000000000000000000000000000000000000000000000000000000000000000000000000000000000000000000000000000000000000000000000
310
000000000000000000000000000000000000000000000000000000000000000000000000000000000000F528BEBEC3C3C3BEC3F5C3C3C328BEBE28C3C3C3F5C3C3C3ECECECEC000028F5000000000000000000F5C3C3C3C3C3C3C3F5F5C3C3C3C3C3C3C3C3C3C3C3F5C3C3C3ECECEC00002800F50000000000000000F52800
310
C3C3C3C300C300C3C3002828C3C3C30000C3C3C3C3ECECEC0000000028F500000000000000000000000000000000000000000000000000000000000000000000000000000000000000000000000000000000000000000000000000000000000000000000000000000000000000000000000000000000000000000000000000
310
0000000000000000000000000000000000000000000000000000000000000000000000000000000000000000F528C3C3C3C3C3C3C300C3C32828C3C3C3C3C3C300C3C3C328ECECECECEC28F5000000000000000000F528C3C3C3C3C3C300C3C3C30028C3C3C3C3C3C300C3C3C3C3ECECECECECEC00F50000000000000000F5
310
280028C300C3C3C3C3C3C30028C3C30000C3C3C3C3C3C328ECECECECECEC28F50000000000000000000000000000000000000000000000000000000000000000000000000000000000000000000000000000000000000000000000000000000000000000000000000000000000000000000000000000000000000000000000
310
00000000000000000000000000000000000000000000000000000000000000000000000000000000000000000000F528C3C3C3C3C3C3C3C3C3C3C3C3C300C3C3C3C3C3C3C3C3C3ECECECECEC28F5000000000000000000F528C3C300C3C3C3C3C3C3C300C3C300C3C3C3C3C3C3C3C3C3ECECECECECEC00F500000000000000
310
00F52800280000BEBEC3BEBEBEC32828000000BEBEBEC3C3C328ECECECECECEC28F5000000000000000000000000000000000000000000000000000000000000000000000000000000000000000000000000000000000000000000000000000000000000000000000000000000000000000000000000000000000000000000
310
000000000000000000000000000000000000000000000000000000000000000000000000000000000000000000000000F528ECECECECECBEC3BEC3C3C3ECECECECECECC3C3C3C3C3C3ECECECECEC28F5000000000000000000F5282800002800BEBEC3C3C3C3280000280000BEBEC3C3C3C3ECECECECEC2800F50000000000
310
000000F528ECECECECC3C30FC3C3C30028ECECEC00BEBEBEBEC3BE28ECECECECECEC28F500000000000000000000000000000000000000000000000000000000000000000000000000000000000000000000000000000000000000000000000000000000000000000000000000000000000000000000000000000000000000
310
0000000000000000000000000000000000000000000000000000000000000000000000000000000000000000000000000000F528ECECECECECEC0F0FBEBE28ECECECECECECECF5F5BEBE28F5F5F5F5F5F5F5000000000000000000F528ECECECECECECF5F5BEBEC3ECECECECECECEC0FF5C3C3C328282828282800F5000000
310
0000000000F5280000000028280F2828282828000000002828F528BEBE2828282828282828F50000000000000000000000000000000000000000000000000000000000000000000000000000000000000000000000000000000000000000000000000000000000000000000000000000000000000000000000000000000000
310
00000000000000000000000000000000000000000000000000000000000000000000000000000000000000000000000000000000F528282828282828C328282828282828282828280F0F2828F5F5F5F5F5F5F5F5000000000000000000F528282828282828F5F5282828282828282828280FF528282828282828282800F500
310
00000000000000F528282828282828282828282828282828282828282828282828282828282828F5000000000000000000000000000000000000000000000000000000000000000000000000000000000000000000000000000000000000000000000000000000000000000000000000000000000000000000000000000000
310
000000000000000000000000000000000000000000000000000000000000000000000000000000000000000000000000000000000000F528ECECECECEC282828282828ECECECECEC28282828282828F5F528282828F5000000000000000000F528ECECECECEC282828282828ECECECECEC2828282828282828282828282800
310
F50000000000000000F528ECECECECEC282828282828ECECECECECEC28282828282828282828282828F500000000000000000000000000000000000000000000000000000000000000000000000000000000000000000000000000000000000000000000000000000000000000000000000000000000000000000000000000
310
0000000000000000000000000000000000000000000000000000000000000000000000000000000000000000000000000000000000000000F5F5F5F5F5F5F5F5F5F5F5F5F5F5F5F5F5F5F5F5F5F5F5F5F5F5F5F5F5F5F5F5000000000000000000F5F5F5F5F5F5F5F5F5F5F5F5F5F5F5F5F5F5F5F5F5F5F5F5F5F5F5F5F5F5
310
F5F5F50000000000000000F5F5F5F5F5F5F5F5F5F5F5F5F5F5F5F5F5F5F5F5F5F5F5F5F5F5F5F5F5F5F5F5F50000000000000000000000000000000000000000000000000000000000000000000000000000000000000000000000000000000000000000000000000000000000000000000000000000000000000000000000
310
00000000000000000000000000000000000000000000000000000000000000000000000000000000000000000000000000000000000000000000F5282828282828282828282828282828282828282828282828ECEC28ECECECF5000000000000000000F528282828282828282828282828282828282828282828282828EC28
310
ECECEC00F50000000000000000F528282828282828282828282828282828282828282828282828EC28ECECEC28F5000000000000000000000000000000000000000000000000000000000000000000000000000000000000000000000000000000000000000000000000000000000000000000000000000000000000000000
310
000000000000000000000000000000000000000000000000000000000000000000000000000000000000000000000000000000000000000000000000F5C3C3C3C3C3C3C3C3C3000028C3C3C3C3C3C3C3C3C3C30028ECEC28ECECECF5000000000000000000F5C3C3C3C3C3C3C3C3C3C30000C3C3C3C3C3C3C300C3C3002828
310
EC28ECECEC00F50000000000000000F528C3C3C3C30000C3C300000028C3C3C3C300C3C30000002828EC28ECECEC28F500000000000000000000000000000000000000000000000000000000000000000000000000000000000000000000000000000000000000000000000000000000000000000000000000000000000000
310
0000000000000000000000000000000000000000000000000000000000000000000000000000000000000000000000000000000000000000000000000000F5C3C3C3C3C3C300DCDC00C3C3C3C3C3C3C3C300DCDCC3C3C3ECEC2828ECECF5000000000000000000F5C3C3C3C3C3C3C3C3C300C3C3C3C3C3C3C3C3C3C3F5C3C3
310
C3ECEC0028ECEC00F50000000000000000F528C3C3C3000000DC00C3C3C328C3C3C3C300DCDCC3C30028ECECEC28ECECECF50000000000000000000000000000000000000000000000000000000000000000000000000000000000000000000000000000000000000000000000000000000000000000000000000000000000
310
00000000000000000000000000000000000000000000000000000000000000000000000000000000000000000000000000000000000000000000000000000000F5C3BEBEC3C3C3BEF5F5C3C3C3C3BEBEC3C3C3C3F5F5C3C3C328ECECECECECF5000000000000000000F5C3C3C3C3C3C3C3F5F5C3C3C3C3C3C3C3C3C3C3C3F5
310
C3C3C328ECECECECEC00F50000000000000000F528C3C3C3C3BEBEBEBEC3C30028C3C3C3C3BEBEBEC3C3C32828ECECECECECECF5000000000000000000000000000000000000000000000000000000000000000000000000000000000000000000000000000000000000000000000000000000000000000000000000000000
310
000000000000000000000000000000000000000000000000000000000000000000000000000000000000000000000000000000000000000000000000000000000000F528C3BEC3C3C3C3C3BEC3C32828BEC3C3C3C3C3BEC3C3C3ECECECECEC2828F5000000000000000000F528C3C3C3C3C3C3BEC3C3C30028C3C3C3C3C3C3
310
BEC3C3C3C3ECECECEC282800F50000000000000000F52800C3C3C3BEBEC3BEC3C3002828C3C3C3C3C3BEC3C3002828ECECEC282828F500000000000000000000000000000000000000000000000000000000000000000000000000000000000000000000000000000000000000000000000000000000000000000000000000
310
0000000000000000000000000000000000000000000000000000000000000000000000000000000000000000000000000000000000000000000000000000000000000000F528C3C3C3C3C3C3C3C3C3C328C3C300C3C3C3C3C3C3C3C328282828282828F5000000000000000000F528C3C3C3C3C3C3C3C3C3C300C3C3C3C3C3
310
C3C3C3C3C3C3C328282828282800F50000000000000000F52800C3C30000C3C3C3C3C30028C3C3C300C3C3C3C3C300ECECECECECEC0028F50000000000000000000000000000000000000000000000000000000000000000000000000000000000000000000000000000000000000000000000000000000000000000000000
310
00000000000000000000000000000000000000000000000000000000000000000000000000000000000000000000000000000000000000000000000000000000000000000000F528280000280000000000C3C3280000280000000000C3C3C3000000000028F5000000000000000000F5282800002800000000000000280000
310
28000000000000002800000000002800F50000000000000000F5280028000000000000C3C3C32828000000000000C3C3002800000000000028F5000000000000000000000000000000000000000000000000000000000000000000000000000000000000000000000000000000000000000000000000000000000000000000
310
000000000000000000000000000000000000000000000000000000000000000000000000000000000000000000000000000000000000000000000000000000000000000000000000F5ECECECECEC00BEC3BEC3C3C3ECECECECEC00C3C3C3C3C3C3000000000028F5000000000000000000F5ECECECECECECBEBEC3C3C3C3EC
310
ECECECECECBEBEC3C3C3C300000000002800F50000000000000000F528ECECECECBEBEBEBEC3C3C328ECECECECBEBEBEC3C3002800000000000028F500000000000000000000000000000000000000000000000000000000000000000000000000000000000000000000000000000000000000000000000000000000000000
310
0000000000000000000000000000000000000000000000000000000000000000000000000000000000000000000000000000000000000000000000000000000000000000000000000000F5ECECECECECECBEF5F5BEBE28ECECECECECECBEF5F5BEBE28000000000028F5000000000000000000F5ECECECECECECECF5F5C3C3
310
C3ECECECECECECC3C3F5C3C3C300000000002800F50000000000000000F52800000000BEBEBEBEBEBE282800000000BEBEBEBEBE002800000000000028F50000000000000000000000000000000000000000000000000000000000000000000000000000000000000000000000000000000000000000000000000000000000
310
00000000000000000000000000000000000000000000000000000000000000000000000000000000000000000000000000000000000000000000000000000000000000000000000000000000F528282828282828C32828282828282828282828F5F5282828000000000028F5000000000000000000F528282828282828F5F5
310
2828282828282828282828F528282800000000002800F50000000000000000F528282828282828C3282828282828282828282828282828ECECECEC00000028F5000000000000000000000000000000000000000000000000000000000000000000000000000000000000000000000000000000000000000000000000000000
310
000000000000000000000000000000000000000000000000000000000000000000000000000000000000000000000000000000000000000000000000000000000000000000000000000000000000F5282828282828282828282828282828282828282828282828ECECEC000028F5000000000000000000F528282828282828
310
28282828282828282828282828282828ECECECEC00002800F50000000000000000F528ECECECECEC282828282828ECECECECECEC2828282828ECECECEC00000028F500000000000000000000000000000000000000000000000000000000000000000000000000000000000000000000000000000000000000000000000000
310
0000000000000000000000000000000000000000000000000000000000000000000000000000000000000000000000000000000000000000000000000000000000000000000000000000000000000000F52800000000000000000000280000000000000000000000ECECECECEC0028F5000000000000000000F52800000000
310
000000000000002800000000000000000000ECECECECEC002800F50000000000000000F528000000000000C30000000028000000000000C3000000ECECECEC00000028F50000000000000000000000000000000000000000000000000000000000000000000000000000000000000000000000000000000000000000000000
310
00000000000000000000000000000000000000000000000000000000000000000000000000000000000000000000000000000000000000000000000000000000C3C300000000000000000000000000000000F5C3C3C3C3C3C3C3C3C3000028C3C3C3C3C3C3C3C3C30000ECECECECEC0028F5000000000000000000F52828C3
310
C3C3C3C3C3C30000002800C3C300C3C3C3C30000ECECECECEC002800F50000000000000000F528C328C3C30000C30000000028F5C3C3C30000C3000000ECECECEC00000028F5000000000000000000000000000000000000000000000000000000000000000000000000000000000000000000000000000000000000000000
310
00000000000000000000000000000000000000000000000000000000000000000000000000000000000000000000000000000000000000000000C3C3C3C3C3C3C3C3C3C300000000000000000000000000000000F5C3C3C3C3C3C300ECF500C3C3C3F5C3C3C3C300F5C3C3C3C3ECECECEC0028F5000000000000000000F5C3
310
C3C3C3C3C3C3C3C300C3C3C3C3C3C3C3C3C3C3C3C3C3ECECECECEC002800F50000000000000000F528C3C3F5000000C300C3C3C328C3F5C3000000C3C3C3C3ECECECEC00000028F500000000000000000000000000000000000000000000000000000000000000000000000000000000000000000000000000000000000000
310
000000000000000000000000000000000000000000000000000000000000000000000000000000000000000000000000000000000000000000000000C3C3C3C3C3DCC3C3C30F00000000000000000000000000000000F5C3BEBEC3C3C3BEBEBEC3C3C3C3BEBEC3C3C3C3C3C3C3C3C3ECECEC000028F5000000000000000000
310
F5C3C3C3C3C3C3C3BEBEC3C3C3C3C3C3C3C3C3C3C3C3C3C3ECECECEC00002800F50000000000000000F52800BEBEC3BEBEBEBEBEBE002828BEBE00BEBEC3C3C3C3ECECECEC00000028F50000000000000000000000000000000000000000000000000000000000000000000000000000000000000000000000000000000000
310
000000000000000000000000000000000000000000000000000000000000000000000000000000000000000000000000000000000000000000000000000000BEC3C3BEC3C3C3C3C3C3000000000000000000000000000000F528C3BEC3C3C3C3C3BEC3C32828BEC3C3C3C3C3BEC3C3C3ECECECECECEC28F500000000000000
310
0000F528C3C3C3C3C3C3BEC3C3C30028C3C3C3C3C3C3BEC3C3BEECECECECECEC2800F50000000000000000F5280028C3C30000C300C3C3002828C3C3C30000C3C3C3C3ECECECECECECEC28F5000000000000000000000000000000000000000000000000000000000000000000000000000000000000000000000000000000
310
0000000000000000000000000000000000000000000000000000000000000000000000000000000000000000000000000000000000000000000000000000000000C3C300C3C3C300000000000000000000000000000000000000F528C3C3C3C3C3C3C3C3C3C328C3C300C3C3C3C3C3C3C3C328ECECECECEC28F50000000000
310
00000000F528C3C3C3C3C3C3C3C3C3C300C3C3C3C3C3C3C3C3C3C3C3C3ECECECECECEC00F50000000000000000F5280028C300C3C3C3C3C3C3002828C30000C3C3C3C3C3C328ECECECECECEC28F500000000000000000000000000000000000000000000000000000000000000000000000000000000000000000000000000
310
0000000000000000000000000000000000000000000000000000000000000000000000000000000000000000000000000000000000000000000000000000000000000000000000000000000000000000000000000000000000000000F528280000280000C30000C3C32800002800000000C3C3C3C3ECECECECEC28F5000000
310
000000000000F528C30000C3000000C3BEC3C328C30028C3000000C3C3C3C3ECECECECEC2800F50000000000000000F52800280000BEBEBEBEBEBEC32828000000BEBEBEBEC3C328ECECECECECEC28F50000000000000000000000000000000000000000000000000000000000000000000000000000000000000000000000
310
00000000000000000000000000000000000000000000000000000000000000000000000000000000000000000000000000000000000000000000000000000000000000000000000000000000000000000000000000000000000000000000F528ECECECECECECC3BEC3BEC3ECECECECECECECF5F5C3C3C3ECECECECEC28F500
310
0000000000000000F528ECECECECECC3C3C3C3C3C3ECECECECECECECF5F5C3C3C3ECECECECEC2800F50000000000000000F528ECECEC00BEBEBEBEBEBE0028ECECEC00BEBEBEBEBEBE28ECECECECEC2828F5000000000000000000000000000000000000000000000000000000000000000000000000000000000000000000
310
000000000000000000000000000000000000000000000000000000000000000000000000000000000000000000000000000000000000000000000000000000000000000000000000000000000000000000000000000000000000000000000000F528ECECECECEC282828282828ECECECECECECECF5F5282828282828282828
310
F5000000000000000000F528ECECECECEC282828282828ECECECECECECECF5F528282828282828282800F50000000000000000F528000000002828282828280028000000002828F52828282828282828282828F500000000000000000000000000000000000000000000000000000000000000000000000000000000000000
310
0000000000000000000000000000000000000000000000000000000000000000000000000000000000000000000000000000000000000000000000000000000000000000000000000000000000000000000000000000000000000000000000000000F528ECECECECEC282828282828ECECECECEC2828282828282828282828
310
2828F5000000000000000000F528ECECECECEC282828282828ECECECECEC282828C328282828282828282800F50000000000000000F528ECECECECEC282828282828ECECECECECEC28282828282828282828282828F50000000000000000000000000000000000000000000000000000000000000000000000000000000000
310
000000000000000000000000000000000000000000000000000000000000000000000000000000000000000000000000000000000000000000000000000000F5F5F5F5F5F5F5F5F5F5F5F5F5F5F5F5F5F5F5F5F5F5F5F5F5F5F5F5F5F5F5F5F500000000F5F5F5F5F5F5F5F5F5F5F5F5F5F5F5F5F5F5F5F5F5F5F5F5F5F5F5
310
F5F5F5F5F5000000000000000000F5F5F5F5F5F5F5F5F5F5F5F5F5F5F5F5F5F5F5F5F5F5F5F5F5F5F5F5F5F5F5F5F50000000000000000F5F5F5F5F5F5F5F5F5F5F5F5F5F5F5F5F5F5F5F5F5F5F5F5F5F5F5F5F5F5F5F5F5000000000000000000000000000000000000000000000000000000000000000000000000000000
310
0000000000000000000000000000000000000000000000000000000000000000000000000000000000000000000000000000000000000000000000000000000000F5F5F5282828282828282828282828282828282828282828282828282828F5F5F500000000F5282828282828282828282828282828282828282828282828
310
282828282828F5000000000000000000F528282828282828282828282828282828282828282828282828282828282800F50000000000000000F528282828282828282828282828282828282828282828282828282828282828F500000000000000000000000000000000000000000000000000000000000000000000000000
310
00000000000000000000000000000000000000000000000000000000000000000000000000000000000000000000000000000000000000000000000000000000000000F52800F500000000000000000000000000000000000000002828EC0028F5EC28F500000000F528000000000000000000000000000000000000000000
310
0028ECEC28ECECECF5000000000000000000F528000000000000000000000000000000000000000000002828EC00ECECEC00F50000000000000000F528000000000000000000000000000000000000000000002828EC00ECECEC28F50000000000000000000000000000000000000000000000000000000000000000000000
310
000000000000000000000000000000000000000000000000000000000000000000000000000000000000000000000000000000000000000000000000000000000000000000F52800C3F5C3C3C300C3C3C3C3C3000000C3C3C3C3C3000028ECECECF5ECECECF500000000F52800000000000000000000000000000000000000
310
00000028ECEC2828ECECF5000000000000000000F5280000000000000000000000000000000000000000000028ECEC2828ECEC00F50000000000000000F5280000000000000000000000000000000000000000000028ECECEC28ECECECF5000000000000000000000000000000000000000000000000000000000000000000
310
0000000000000000000000000000000000000000000000000000000000000000000000000000000000000000000000000000000000000000000000000000000000000000000000F52800C3C3F5F50000C3C3F5C3C3000000F5C300C3C300002828F5F528ECECECF500000000F5280000000000000000000000000000000000
310
00000000002828282828ECECF5000000000000000000F528000000000000000000000000000000000000000000002828282828ECEC00F50000000000000000F528000000000000000000000000000000000000000000002828282828ECECECF500000000000000000000000000000000000000000000000000000000000000
310
00000000000000000000000000000000000000000000000000000000000000000000000000000000000000000000000000000000000000000000000000000000000000000000000000F52800C3C3C3C3F500C3C3C3C3C3C3BEBEBEC3C3C3C3000028F5ECECECEC0028F500000000F528000028000000000000280000000000
310
00C3C3000000002828ECECEC0028F5000000000000000000F52800002800000000000028000000000000C3C3000000002828ECECEC002800F50000000000000000F528000000002800000000000000000000C3C300000000002828ECECEC000028F50000000000000000000000000000000000000000000000000000000000
310
000000000000000000000000000000000000000000000000000000000000000000000000000000000000000000000000000000000000000000000000000000000000000000000000000000F528000028C3C3C3F5F528C3C3C3C3000000C3C3C3C300F5F528282828282828F500000000F5280000C3C3C300000000C3C3C300
310
000000C3C30000000028282828282828F5000000000000000000F5280000C3C3C300000000C3C3C30000000000C3000000002828282828282800F50000000000000000F52800000000C3C300000000000000000000C30000000000ECECECECECEC2828F5000000000000000000000000000000000000000000000000000000
310
0000000000000000000000000000000000000000000000000000000000000000000000000000000000000000000000000000000000000000000000000000000000000000000000000000000000F5280000C3C3C3000000F5C3C30000C3C3C3C3C3C3C3F500ECECECECEC000028F500000000F528C3C3DCDCBEC3C300C3C3DC
310
C3C3C3BEBEC3C3BEC3C30028000000000028F5000000000000000000F528C3C3DCDCC3C3C3C3C3DCC3C3C3C3BEBEBEC3BEC3C3C32800000000002800F50000000000000000F5280000C3C3DCC3C3C3000000BEBEBEBEBEC3BEC3C300002800000000000028F500000000000000000000000000000000000000000000000000
310
00000000000000000000000000000000000000000000000000000000000000000000000000000000000000000000000000000000000000000000000000000000000000000000000000000000000000F528000028000000000028F50000C3BEBEBEBEBEC3F50000ECECECEC00000028F500000000F528C3C328BEBEC3C3C3C3
310
280FC3C3C3C3C3C3C3C3C3C30028000000000028F5000000000000000000F528C3C328C3C3C3C3C3C328C3C3C3C3BEBEBEBEC3C3C3002800000000002800F50000000000000000F5280000C3C328C3C3C30000C3C3C3C3C3C3C3C3C3C300002800000000000028F50000000000000000000000000000000000000000000000
310
000000000000000000000000000000000000000000000000000000000000000000000000000000000000000000000000000000000000000000000000000000000000000000000000000000000000000000F5280000ECECEC000000ECECF5F500BEBEBEBEF5F5BE0000ECECECECEC000028F500000000F528C3C3DCDCC3C3C3
310
00C3C3DCC3C3C30000F5F5C3C3C30028000000000028F5000000000000000000F52800C3DCDCC3C3C3C3C3DCC3C3C3C3000000F5C3C3C3002800000000002800F50000000000000000F5280000C3C3DCC3C3C30000000000000000F5C3C3C300002800000000000028F5000000000000000000000000000000000000000000
310
0000000000000000000000000000000000000000000000000000000000000000000000000000000000000000000000000000000000000000000000000000000000000000000000000000000000000000000000F528000000000000000000000000F5282828F52828280000ECECECEC00000028F500000000F528C3C3C3BEBE
310
00C300C3C3DCDC00C3BEBEBEBEBEC3C30028000000000028F5000000000000000000F528C3C3C3DCDC00C3C3C3C3DCBE00C3BEBEBEBEBEBEBE002800000000002800F50000000000000000F5280000C3C3C3C300C30000C3BEBEBEBEBEBEBEBEC30000ECECECEC00000028F500000000000000000000000000000000000000
310
00000000000000000000000000000000000000000000000000000000000000000000000000000000000000000000000000000000000000000000000000000000000000000000000000000000000000000000000000F52828282828282828282828282828F5F5F52828282828282828282828282828F500000000F528000028
310
BEBEC3C3000028C3C3C3C3BEBEBEC3C3BEC300ECECEC00000028F5000000000000000000F528000028C3C3C3C3000028C3C3C3C3BEBEBEC3C3BEC300ECECEC0000002800F50000000000000000F52800000000C3C3C3C3000000BEBEBEBEBEC3C3BEC30000ECECECEC00000028F50000000000000000000000000000000000
310
000000000000000000000000000000000000000000000000000000000000000000000000000000000000000000000000000000000000000000000000000000000000000000000000000000000000000000000000000000F528000028C3C3C3000028C3C3C300F5F5F5C30000000000ECECECECEC000028F500000000F52800
310
00ECC3C3C3000000C3C3C3C300C3C3C3C3C3C3C300ECECECECEC0028F5000000000000000000F5280000C3C3C3C3000000C3C3C3C300C3C3C3C3C3C3C300ECECECECEC002800F50000000000000000F52800000000C3C3C3C3000000C3C3C3C3C3C3C3C3C30000ECECECEC00000028F5000000000000000000000000000000
310
0000000000000000000000000000000000000000000000000000000000000000000000000000000000000000000000000000000000000000000000000000000000000000000000000000000000000000000000000000000000F52800C3C3C3C3C300C3C3C3C3C3F50000C3F50000000000ECECECEC00000028F500000000F5
310
28000028C3000000000028C300000000C3C300C3000000ECECECEC000028F5000000000000000000F528000028C30000000000C3C300000000C3C300C3C30000ECECECEC00002800F50000000000000000F52800000000C30000000000000000C3C30000C3C3000000ECECECEC00000028F500000000000000000000000000
310
00000000000000000000000000000000000000000000000000000000000000000000000000000000000000000000000000000000000000000000000000000000000000000000000000000000000000000000000000000000000000F52800C3C3F5C30000C3C3F5F5F500BEBEBEBEF5F5C30000ECECECECEC000028F5000000
310
00F5280000ECECEC00000000ECECEC00000000000000C3C300ECECECECEC0028F5000000000000000000F5280000ECECEC00000000ECECEC00000000000000C3C3C3ECECECECEC002800F50000000000000000F528000000ECECECEC0000000000000000000000C3C30000ECECECEC00000028F50000000000000000000000
310
000000000000000000000000000000000000000000000000000000000000000000000000000000000000000000000000000000000000000000000000000000000000000000000000000000000000000000000000000000000000000000F528000028BEBE00000028F5C3C3C3C3C3C3C3C3C3F50000ECECECEC00000028F500
310
000000F52800000000000000000000000000C3BEBEBEBEBEC3C300ECECECEC000028F5000000000000000000F52800000000000000000000000000C3BEBEBEBEBEC3BE00ECECECEC00002800F50000000000000000F52800000000000000000000C3BEBEBEBEBEBEBEC3C30000ECECECEC00000028F5000000000000000000
310
0000000000000000000000000000000000000000000000000000000000000000000000000000000000000000000000000000000000000000000000000000000000000000000000000000000000000000000000000000000000000000000000F528000028C3C3C30000F5C3C3C3C3000000C3C3C300F500ECEC282828282828
310
F500000000F5280000000000000000000000000000BEBEBEBEBEBEBE00EC282828282828F5000000000000000000F5280000000000000000000000000000BEBEBEBEBEBEBE00ECEC282828282800F50000000000000000F5280000000000000000000000BEBEBEBEBEBEBEBEBE0000ECEC282828282828F500000000000000
310
00000000000000000000000000000000000000000000000000000000000000000000000000000000000000000000000000000000000000000000000000000000000000000000000000000000000000000000000000000000000000000000000000F5280000C3C3C300F5F5C3C3C30000C3C3C3C3C3C3C300F5F500ECECECEC
310
0028F500000000F52800000000000000000000000000282828282828282828ECECECECECECECF5000000000000000000F52800000000000000000000000000282828282828282828ECECECECECECEC00F50000000000000000F528000000000000000000282828282828282828282828002800ECECECEC0028F50000000000
310
000000000000000000000000000000000000000000000000000000000000000000000000000000000000000000000000000000000000000000000000000000000000000000000000000000000000000000000000000000000000000000000000000000F5280000280000F5000028000000C3BEBEBEBEBEC3C3000028F5ECEC
310
ECEC2828F500000000F528000000000000000000000000000000000000000000002828ECEC282828F5000000000000000000F528000000000000000000000000000000000000000000002828ECEC28282800F50000000000000000F528000000000000000000000000000000000000000000002828282828282828F5000000
310
0000000000000000000000000000000000000000000000000000000000000000000000000000000000000000000000000000000000000000000000000000000000000000000000000000000000000000000000000000000000000000000000000000000000F5280000ECF5F5000000ECECEC0000BEBEBEBEBEBE00000028EC
310
F5F5ECEC2828F500000000F5280000000000000000000000000000000000000000000028ECECECECEC28F5000000000000000000F5280000000000000000000000000000000000000000000028ECECECECEC2800F50000000000000000F5280000000000000000000000000000000000000000000028ECECECECECEC28F500
310
00000000000000000000000000000000000000000000000000000000000000000000000000000000000000000000000000000000000000000000000000000000000000000000000000000000000000000000000000000000000000000000000000000000000000F5280000F500000000000000000028282828282828280000
310
28282828F5282828F500000000F5280000000000000000000000000000000000000000000028282828282828F5000000000000000000F528000000000000000000000000000000000000000000002828282828282800F50000000000000000F528000000000000000000000000000000000000000000002828282828282828
310
F50000000000000000000000000000000000000000000000000000000000000000000000000000000000000000000000000000000000000000000000000000000000000000000000000000000000000000000000000000000000000000000000000000000000000000F528ECF5ECECEC282828282828282828282828282828
310
28282828282828F52828F500000000F528ECECECECEC282828282828282828282828282828282828282828282828F5000000000000000000F528ECECECECEC28282828282828282828282828282828282828282828282800F50000000000000000F528ECECECECEC2828282828282828282828282828282828282828282828
310
2828F50000000000000000000000000000000000000000000000000000000000000000000000000000000000000000000000000000000000000000000000000000000000000000000000000000000000000000000000000000000000000000000000000000000000000000F5F5F52828282828282828282828282828282828
310
28282828282828282828F5F5F500000000F5282828282828282828282828282828282828282828282828282828282828F5000000000000000000F528282828282828282828282828282828282828282828282828282828282800F50000000000000000F5282828282828282828282828282828282828282828282828282828
310
28282828F50000000000000000000000000000000000000000000000000000000000000000000000000000000000000000000000000000000000000000000000000000000000000000000000000000000000000000000000000000000000000000000000000000000000000000F5F5F5F5F5F5F5F5F5F5F5F5F5F5F5F5F5F5
310
F5F5F5F5F5F5F5F5F5F5F5F5F5F5F500000000F5F5F5F5F5F5F5F5F5F5F5F528F5F5F5F5F5F5F5F5F5F5F528F5F528F5F5F5F5000000000000000000F5F5F5F5F5F5F5F5F5F5F5F5F5F5F5F5F5F5F5F5F5F5F5F528F5F5F528F5F5F5F50000000000000000F5F5F5F5F5F5F5F5F5F5F5F5F528F5F5F5F5F5F5F5F5F5F528F5
310
F5F528F5F5F5F5000000000000000000000000000000000000000000000000000000000000000000000000000000000000000000000000000000000000000000000000000000000000000000000000000000000000000000000000000000000000000000000000000000000000000000000000000000000000000000000000
310
000000000000000000000000000000000000000000F5280000282828282828282828000000000000000000000028ECEC28ECECECF5000000000000000000F528000000282828282828282800000000000000000000002800EC00ECECEC00F50000000000000000F52800000000000000000000002800000000000000000000
310
2800EC00ECECEC28F500000000000000000000000000000000000000000000000000000000000000000000000000000000000000000000000000000000000000000000000000000000000000000000000000000000000000000000000000000000000000000000000000000000000000000000000000000000000000000000
310
0000000000000000000000000000000000000000000000F528000028000000000F00002800000000000000000000002828282828ECECF5000000000000000000F528000000280000000F0F000000000000000000000000002828282828ECEC00F50000000000000000F5280000282828282828282828280000000000000000
310
00002828282828ECECECF50000000000000000000000000000000000000000000000000000000000000000000000000000000000000000000000000000000000000000000000000000000000000000000000000000000000000000000000000000000000000000000000000000000000000000000000000000000000000000
310
00000000000000000000000000000000000000000000000000F5280000C3C3C300C30F000028000000000000000000000028ECEC2828ECECF5000000000000000000F528000000C3C3C3C30F0FBE00000000000000000000000028ECEC2828ECEC00F50000000000000000F528000028280000000000000028000000000000
310
0000000028ECECEC28ECECECF5000000000000000000000000000000000000000000000000000000000000000000000000000000000000000000000000000000000000000000000000000000000000000000000000000000000000000000000000000000000000000000000000000000000000000000000000000000000000
310
000000000000000000000000000000000000000000000000000000F528000028C3C3C3BE0FBEC3C300000000000000000000002800ECECEC0028F5000000000000000000F528000000C300C3BEC3BEBEC300000000000000000000002800ECECEC002800F50000000000000000F528000028C3C3C300000000002800000000
310
0000000000002800ECECEC000028F500000000000000000000000000000000000000000000000000000000000000000000000000000000000000000000000000000000000000000000000000000000000000000000000000000000000000000000000000000000000000000000000000000000000000000000000000000000
310
0000000000000000000000000000000000000000000000000000000000F528000028C3ECC3C3C3C300280000000000000000000000ECECECECECEC28F5000000000000000000F528000000C300ECC3C3C3C3000000000000000000000000ECECECECECEC2800F50000000000000000F528000028C3BEC30000000000280000
310
0000000000000000ECECECECECEC2828F50000000000000000000000000000000000000000000000000000000000000000000000000000000000000000000000000000000000000000000000000000000000000000000000000000000000000000000000000000000000000000000000000000000000000000000000000000
310
00000000000000000000000000000000000000000000000000000000000000F528000028C3C3C3C3C3C30028000000000000000000000028282828282828F5000000000000000000F528000000C3C3C3C300C3C30000000000000000000000002828282828282800F50000000000000000F528000028C3BEC3000000000028
310
00000000000000000000ECECECECECEC0028F5000000000000000000000000000000000000000000000000000000000000000000000000000000000000000000000000000000000000000000000000000000000000000000000000000000000000000000000000000000000000000000000000000000000000000000000000
310
000000000000000000000000000000000000000000000000000000000000000000F528000028C3BE0F0000000028000000000000000000000028000000000028F5000000000000000000F528000000C3000F0F0000000000000000000000000000002800000000002800F50000000000000000F528000028C3C3C3C3000000
310
0028000000000000000000002800000000000028F500000000000000000000000000000000000000000000000000000000000000000000000000000000000000000000000000000000000000000000000000000000000000000000000000000000000000000000000000000000000000000000000000000000000000000000
310
0000000000000000000000000000000000000000000000000000000000000000000000F528000028C3BEBE0000000028000000000000000000000028000000000028F5000000000000000000F528000000C300BE000000000000000000000000000000002800000000002800F50000000000000000F528000028C3BEBE0000
310
00000028000000000000000000002800000000000028F50000000000000000000000000000000000000000000000000000000000000000000000000000000000000000000000000000000000000000000000000000000000000000000000000000000000000000000000000000000000000000000000000000000000000000
310
00000000000000000000000000000000000000000000000000000000000000000000000000F528000028C3C3C3C300000028000000000000000000000028000000000028F5000000000000000000F528000000C3C3C3C30000000000000000000000000000002800000000002800F50000000000000000F528000028C3BEBE
310
000000000028000000000000000000002800000000000028F5000000000000000000000000000000000000000000000000000000000000000000000000000000000000000000000000000000000000000000000000000000000000000000000000000000000000000000000000000000000000000000000000000000000000
310
000000000000000000000000000000000000000000000000000000000000000000000000000000F528000028C3C3BE0000000028000000000000000000000028000000000028F5000000000000000000F528000000C300BE000000000000000000000000000000002800000000002800F50000000000000000F528000028C3
310
C3C3C3000000002800000000000000000000ECECECEC00000028F500000000000000000000000000000000000000000000000000000000000000000000000000000000000000000000000000000000000000000000000000000000000000000000000000000000000000000000000000000000000000000000000000000000
310
0000000000000000000000000000000000000000000000000000000000000000000000000000000000F528000028C3C3BE00000000280000000000000000000000ECECECECEC0028F5000000000000000000F528000000C3C3BE00000000000000000000000000000000ECECECECEC002800F50000000000000000F5280000
310
28C3BEBE00000000002800000000000000000000ECECECEC00000028F50000000000000000000000000000000000000000000000000000000000000000000000000000000000000000000000000000000000000000000000000000000000000000000000000000000000000000000000000000000000000000000000000000
310
00000000000000000000000000000000000000000000000000000000000000000000000000000000000000F528000028C3C3C3C3C30000280000000000000000000000ECECECEC000028F5000000000000000000F528000000C3C3C3C3C30000000000000000000000000000ECECECEC00002800F50000000000000000F528
310
000028C3BEBE00000000002800000000000000000000ECECECEC00000028F5000000000000000000000000000000000000000000000000000000000000000000000000000000000000000000000000000000000000000000000000000000000000000000000000000000000000000000000000000000000000000000000000
310
000000000000000000000000000000000000000000000000000000000000000000000000000000000000000000F52800000000C3C3C3C30000280000000000000000000000ECECECECEC0028F5000000000000000000F528000000C3C3C3C3C30000000000000000000000000000ECECECECEC002800F50000000000000000
310
F528000028C3C3C3C3C30000002800000000000000000000ECECECEC00000028F500000000000000000000000000000000000000000000000000000000000000000000000000000000000000000000000000000000000000000000000000000000000000000000000000000000000000000000000000000000000000000000
310
0000000000000000000000000000000000000000000000000000000000000000000000000000000000000000000000F5ECECECECC3C3C300000000280000000000000000000000ECECECEC000028F5000000000000000000F528ECECECC3C3C30F000000000000000000000000000000ECECECEC00002800F5000000000000
310
0000F52800000000000000000000002800000000000000000000ECECECEC00000028F50000000000000000000000000000000000000000000000000000000000000000000000000000000000000000000000000000000000000000000000000000000000000000000000000000000000000000000000000000000000000000
310
00000000000000000000000000000000000000000000000000000000000000000000000000000000000000000000000000F528000028C3C3DC28280000280000000000000000000000ECECEC00000028F5000000000000000000F528000000C3C3DCC3280000000000000000000000000000ECECEC0000002800F500000000
310
00000000F52800000000000000000000002800000000000000000000ECECEC0000000028F5000000000000000000000000000000000000000000000000000000000000000000000000000000000000000000000000000000000000000000000000000000000000000000000000000000000000000000000000000000000000
310
000000000000000000000000000000000000000000000000000000000000000000000000000000000000000000000000000000F528000000C3C3C3C300000028000000000000000000000028ECECECECEC28F5000000000000000000F52800000000C3C3C300000000000000000000000000000028ECECECECEC2800F50000
310
000000000000F52800000000C3C30000000000280000000000000000000028ECECECECECEC28F500000000000000000000000000000000000000000000000000000000000000000000000000000000000000000000000000000000000000000000000000000000000000000000000000000000000000000000000000000000
310
0000000000000000000000000000000000000000000000000000000000000000000000000000000000000000000000000000000000F528000000C3BEBE0000000028000000000000000000000028ECECECECEC28F5000000000000000000F528000000C3C3C30000000000000000000000000000000028ECECECECEC2800F5
310
0000000000000000F528ECECECC3BEBE0000000000280000000000000000000028ECECECECECEC28F50000000000000000000000000000000000000000000000000000000000000000000000000000000000000000000000000000000000000000000000000000000000000000000000000000000000000000000000000000
310
00000000000000000000000000000000000000000000000000000000000000000000000000000000000000000000000000000000000000F5ECECECECC3BEDC2828000028000000000000000000000028ECECECECEC28F5000000000000000000F528ECECECC3C3DCF528000000000000000000000000000028ECECECECEC28
310
00F50000000000000000F52800002828BEBE2828000000280000000000000000000028ECECECECECEC28F5000000000000000000000000000000000000000000000000000000000000000000000000000000000000000000000000000000000000000000000000000000000000000000000000000000000000000000000000
310
000000000000000000000000000000000000000000000000000000000000000000000000000000000000000000000000000000000000000000F528000028C3C3C3C300000028000000000000000000000028282828282828F5000000000000000000F52800000028C3C3C30000000000000000000000000000002828282828
310
282800F50000000000000000F52800002800C3C3C30000000028000000000000000000002828282828282828F500000000000000000000000000000000000000000000000000000000000000000000000000000000000000000000000000000000000000000000000000000000000000000000000000000000000000000000
310
0000000000000000000000000000000000000000000000000000000000000000000000000000000000000000000000000000000000000000000000F528ECECECECC3C32828282828282828282828282828282828282828282828F5000000000000000000F528ECECECECECC3C3282828282828282828282828282828282828
310
2828282800F50000000000000000F528ECECECECECEC282828282828282828282828282828282828282828282828F50000000000000000000000000000000000000000000000000000000000000000000000000000000000000000000000000000000000000000000000000000000000000000000000000000000000000000
310
00000000000000000000000000000000000000000000000000000000000000000000000000000000000000000000000000000000000000000000000000F528ECECECECECEC2828282828282828282828282828282828282828282828F5000000000000000000F528ECECECECECEC2828282828282828282828282828282828
310
28282828282800F50000000000000000F528ECECECECECEC282828282828282828282828282828282828282828282828F5000000000000000000000000000000000000000000000000000000000000000000000000000000000000000000000000000000000000000000000000000000000000000000000000000000000000
310
000000000000000000000000000000000000000000000000000000000000000000000000000000000000000000000000000000000000000000000000000000F5F5F5F5F5F5F5F5F5F5F5F5F5F5F5F5F5F5F5F5F5F5F5F5F5F5F5F5F5F5F5F5000000000000000000F5F5F5F5F5F5F5F5F5F5F5F5F5F5F5F5F5F5F5F5F5F5F5
310
F5F5F5F5F5F5F5F5F5F50000000000000000F5F5F5F5F5F5F5F5F5F5F5F5F5F5F5F5F5F5F5F5F5F5F5F5F5F5F5F5F5F5F5F5F500000000000000000000000000000000000000000000000000000000000000000000000000000000000000000000000000000000000000000000000000000000000000000000000000000000
310
0000000000000000000000000000000000000000000000000000000000000000000000000000000000000000000000000000000000000000000000000000000000F5282828282828282828282828282828282828282828282828282828ECECECF5000000000000000000F52828282828282828282828282828282828282828
310
2828282828EC28ECECEC00F50000000000000000F528282828282828282828282828282828282828282828282828EC28ECECEC28F50000000000000000000000000000000000000000000000000000000000000000000000000000000000000000000000000000000000000000000000000000000000000000000000000000
310
00000000000000000000000000000000000000000000000000000000000000000000000000000000000000000000000000000000000000000000000000000000000000F5280000000000000000000000000000000000000000000028282828ECECECF5000000000000000000F5280000000000000000000000000000000000
310
00000000002828EC28ECECEC00F50000000000000000F528000000000000000000000000000000000000000000002828EC282828ECECF5000000000000000000000000000000000000000000000000000000000000000000000000000000000000000000000000000000000000000000000000000000000000000000000000
310
000000000000000000000000000000000000000000000000000000000000000000000000000000000000000000000000000000000000000000000000000000000000000000F5280000000000000000000000000000000000000000000028ECEC2828ECECF5000000000000000000F528000000000000000000000000000000
310
0000000000000028ECEC0028ECEC00F50000000000000000F5280000000000000000000000000000000000000000000028ECECEC2828ECECF500000000000000000000000000000000000000000000000000000000000000000000000000000000000000000000000000000000000000000000000000000000000000000000
310
0000000000000000000000000000000000000000000000000000000000000000000000000000000000000000000000000000000000000000000000000000000000000000000000F52800C300000FC300C3C3C30F00C3C3C300C30FC3C300002828282828ECECF5000000000000000000F528000F00000F0F00C3C3C30F00C3
310
C3C3000FC3C3C300002828ECECECECEC00F50000000000000000F52800000000000F00C3C3C30F00C3C3C3000FC3C3C300002828ECECEC28ECECF50000000000000000000000000000000000000000000000000000000000000000000000000000000000000000000000000000000000000000000000000000000000000000
310
00000000000000000000000000000000000000000000000000000000000000000000000000000000000000000000000000000000000000000000000000000000000000000000000000F52800C3C300F5C3C3C3C3C30FBEBEC3C300C3F5C3C3000028282828282828F5000000000000000000F52800C3C3000FC3C3C3C3C30F
310
BEC3C3C3000FC3C3C30000ECECECECEC282800F50000000000000000F5280000000000C3C3C3C3C30F00C3C3C3000FC3C3C300002828ECECEC282828F5000000000000000000000000000000000000000000000000000000000000000000000000000000000000000000000000000000000000000000000000000000000000
310
000000000000000000000000000000000000000000000000000000000000000000000000000000000000000000000000000000000000000000000000000000000000000000000000000000F52800C3C300F5C3C30000C3F5BEC3C3C300C3F50000C3C328282828282828F5000000000000000000F52800C3C3000FC3C30000
310
0F0FBEC3C3C3000F0F0000C3C3ECECECECECEC2800F50000000000000000F5280000000000C3C300000F0FBEC300C3000F0F0000C3C3ECECECECECEC0028F500000000000000000000000000000000000000000000000000000000000000000000000000000000000000000000000000000000000000000000000000000000
310
0000000000000000000000000000000000000000000000000000000000000000000000000000000000000000000000000000000000000000000000000000000000000000000000000000000000F52800BEC300C3C3C3BEBEC3BEBEBEC3C3BEC3BEBEBEC3C328000000000028F5000000000000000000F52800DCC300C3C3C3
310
C3BEF5F5BEC3C3C3BEF5F5BEC3C3C32800000000002800F50000000000000000F52800000000C3C3C300BEF5F5BEC3C3C3BEBEF5BEC3C3C32800000000000028F50000000000000000000000000000000000000000000000000000000000000000000000000000000000000000000000000000000000000000000000000000
310
00000000000000000000000000000000000000000000000000000000000000000000000000000000000000000000000000000000000000000000000000000000000000000000000000000000000000F52800C3C3C3C3C3C3C3C3C3C3C3C30000C3C3C3C3C3000028000000000028F5000000000000000000F52800C3C3C3C3
310
C3C300C3C3C3C3C300C3C3C3C3C3C300002800000000002800F50000000000000000F52800000000C3C3C3C3C3C3C3C3C30000C3C3C3C3C3C3002800000000000028F5000000000000000000000000000000000000000000000000000000000000000000000000000000000000000000000000000000000000000000000000
310
000000000000000000000000000000000000000000000000000000000000000000000000000000000000000000000000000000000000000000000000000000000000000000000000000000000000000000F528ECECECECECECECBEBEBEBEBEBE00C3BEBEBEBEC3000028000000000028F5000000000000000000F528ECECEC
310
ECECECECC3BEC3F5BEBE0000BEF5C3BEBEC3002800000000002800F50000000000000000F528000000ECECECEC00BEF5C3BEBEC300BEF5C3BEBEC3002800000000000028F500000000000000000000000000000000000000000000000000000000000000000000000000000000000000000000000000000000000000000000
310
0000000000000000000000000000000000000000000000000000000000000000000000000000000000000000000000000000000000000000000000000000000000000000000000000000000000000000000000F52828282828282828282828282828282828282828BE282828000000000028F5000000000000000000F528EC
310
ECECECECEC282828C328282828282828C328BE28282800000000002800F50000000000000000F528ECECECECECEC28282828C3282828282828C328BEBE28ECECECEC00000028F50000000000000000000000000000000000000000000000000000000000000000000000000000000000000000000000000000000000000000
310
00000000000000000000000000000000000000000000000000000000000000000000000000000000000000000000000000000000000000000000000000000000000000000000000000000000000000000000000000F52828282828282828282828282828282828282828282828ECECECEC000028F5000000000000000000F5
310
28ECECECECECEC28282828282828282828282828282828ECECECEC00002800F50000000000000000F528ECECECECECEC28282828282828282828282828282828ECECECEC00000028F5000000000000000000000000000000000000000000000000000000000000000000000000000000000000000000000000000000000000
310
000000000000000000000000000000000000000000000000000000000000000000000000000000000000000000000000000000000000000000000000000000000000000000000000000000000000000000000000000000F52800000000000000000000000000000000000000000000ECECECECEC0028F50000000000000000
310
00F52800000000000000000000000000000000000000000000ECECECECEC002800F50000000000000000F52800000000000000000000000000000000000000000000ECECECEC00000028F500000000000000000000000000000000000000000000000000000000000000000000000000000000000000000000000000000000
310
0000000000000000000000000000000000000000000000000000000000000000000000000000000000000000000000000000000000000000000000000000000000000000000000000000000000000000000000000000000000F52800000000000000000000000000000000000000000000ECECECECEC0028F5000000000000
310
000000F52800000000000000000000000000000000000000000000ECECECECEC002800F50000000000000000F52800000000000000000000000000000000000000000000ECECECEC00000028F50000000000000000000000000000000000000000000000000000000000000000000000000000000000000000000000000000
310
00000000000000000000000000000000000000000000000000000000000000000000000000000000000000000000000000000000000000000000000000000000000000000000000000000000000000000000000000000000000000F52800C3000000C3000000C30000C3C3C300C30000000000ECECECEC000028F500000000
310
0000000000F52800C3000000C300C3C3C3000000C3C30000C300000000ECECECEC00002800F50000000000000000F5280000000000C300C3C3C3C30000C3C30000C300000000ECECECEC00000028F5000000000000000000000000000000000000000000000000000000000000000000000000000000000000000000000000
310
000000000000000000000000000000000000000000000000000000000000000000000000000000000000000000000000000000000000000000000000000000000000000000000000000000000000000000000000000000000000000000F528000FC3000F0FC3C3C30F00BEBEC3C300C30FC3C30000ECECECEC000028F50000
310
00000000000000F52800C3C3000FC3C3C3C3C30FBEC3C3C3000FC3C3C30000ECECECEC00002800F50000000000000000F5280000000000C3C3C3C3C30F00C3C3C30000C3C3C30000ECECEC0000000028F500000000000000000000000000000000000000000000000000000000000000000000000000000000000000000000
310
0000000000000000000000000000000000000000000000000000000000000000000000000000000000000000000000000000000000000000000000000000000000000000000000000000000000000000000000000000000000000000000000F528000FC3000F0FC300000F00BEC3C3C300C30F00000000ECECECECECEC28F5
310
000000000000000000F52800C3C3000FC3C300000F0FBEC3C3C3000F0F00000000ECECECECECEC2800F50000000000000000F5280000000000C3C300000F0F00C300C300000F00000000ECECECECECEC2828F50000000000000000000000000000000000000000000000000000000000000000000000000000000000000000
310
00000000000000000000000000000000000000000000000000000000000000000000000000000000000000000000000000000000000000000000000000000000000000000000000000000000000000000000000000000000000000000000000000F52800C3C300C3C3C3BEBEC3BEBEBE00C3BEC3BEBEBEC3C328ECECECECEC
310
28F5000000000000000000F52800C3C300C3C3C3C3BEBEBEBEC3C3C3BEBEBEBEC3C3C328ECECECECEC2800F50000000000000000F52800000000C3C3C300BEBEBEBEC300C3BEBEBEBEC3C3C328ECECECECEC0028F5000000000000000000000000000000000000000000000000000000000000000000000000000000000000
310
000000000000000000000000000000000000000000000000000000000000000000000000000000000000000000000000000000000000000000000000000000000000000000000000000000000000000000000000000000000000000000000000000000F52800C3C3C3BEC3C3BEBEC3BEBEC3C3C3BEC3BEBEBE000028ECECEC
310
ECECECF5000000000000000000F52800C3C3C3C3C3C300C3C3C3C3C3C3C3C3C3C3C3C3000028ECECECECECEC00F50000000000000000F52800000000C3C3C3C3C3C3C3C3C3C3C3C3C3C3C3C3C3002828282828282828F500000000000000000000000000000000000000000000000000000000000000000000000000000000
310
0000000000000000000000000000000000000000000000000000000000000000000000000000000000000000000000000000000000000000000000000000000000000000000000000000000000000000000000000000000000000000000000000000000000F528ECECECECECECECBEC3C3C3C3C300C3BEBEBEBEC3000028EC
310
ECECECECECF5000000000000000000F528ECECC3C3ECECC3C3C3C3BEC3C30000C3C3C3C3C3C30028ECECECECECEC00F50000000000000000F528000000ECECC3EC00C3C3C3C3C3C300C3C3C3C3BEC3002828282828282828F50000000000000000000000000000000000000000000000000000000000000000000000000000
310
00000000000000000000000000000000000000000000000000000000000000000000000000000000000000000000000000000000000000000000000000000000000000000000000000000000000000000000000000000000000000000000000000000000000000F528282828282828282828282828282828BEBEBEBEBE2828
310
28282828282828F5000000000000000000F528ECECECECECECEC28BEBEBEBEBE2828BEBEC3BEBE28282828282828282800F50000000000000000F5282828282828282828BEBEBEBEBE2828BEBEC3BEBEBE282828282828282828F5000000000000000000000000000000000000000000000000000000000000000000000000
310
000000000000000000000000000000000000000000000000000000000000000000000000000000000000000000000000000000000000000000000000000000000000000000000000000000000000000000000000000000000000000000000000000000000000000000F5282828282828282828282828282828282828282828
310
282828282828282828F5000000000000000000F528ECECECECECEC282828282828282828282828282828282828282828282800F50000000000000000F528ECECECECECEC282828282828282828282828282828282828282828282828F500000000000000000000000000000000000000000000000000000000000000000000
310
0000000000000000000000000000000000000000000000000000000000000000000000000000000000000000000000000000000000000000000000000000000000000000000000000000000000000000000000000000000000000000000000000000000000000000000000F5F5F5F5F5F5F5F5F5F5F5F5F5F5F5F5F5F5F5F5
310
F5F5F5F5F5F5F5F5F5F5F5F5000000000000000000F5F5F5F5F5F5F5F5F5F5F5F5F5F5F5F5F5F5F5F5F5F5F5F5F5F5F5F5F5F5F5F5F50000000000000000F5F5F5F5F5F5F5F5F5F5F5F5F5F5F5F5F5F5F5F5F5F5F5F5F5F5F5F5F5F5F5F5F50000000000000000000000000000000000000000000000000000000000000000
310
00000000000000000000000000000000000000000000000000000000000000000000000000000000000000000000000000000000000000000000000000000000000000000000000000000000000000000000000000000000000000000000000000000000000000000000000000F52828282828282828282828282828282828
310
28282828282828282828282828F5000000000000000000F528282828282828282828282828282828282828282828282828282828282800F50000000000000000F528282828282828282828282828282828282828282828282828282828282828F5000000000000000000000000000000000000000000000000000000000000
310
000000000000000000000000000000000000000000000000000000000000000000000000000000000000000000000000000000000000000000000000000000000000000000000000000000000000000000000000000000000000000000000000000000000000000000000000000000F5280000000000000000000000000000
310
000000000000000028282828ECECECF5000000000000000000F528000000000000000000000000000000000000000000002828EC28ECECEC00F50000000000000000F528000000000000000000000000000000000000000000002828EC28ECECEC28F500000000000000000000000000000000000000000000000000000000
310
0000000000000000000000000000000000000000000000000000000000000000000000000000000000000000000000000000000000000000000000000000000000000000000000000000000000000000000000000000000000000000000000000000000000000000000000000000000000F528000000000000000000000000
310
0000000000000000000028ECEC2828ECECF5000000000000000000F5280000000000000000000000000000000000000000000028ECEC0028ECEC00F50000000000000000F5280000000000000000000000000000000000000000000028ECECEC28282828F50000000000000000000000000000000000000000000000000000
310
00000000000000000000000000000000000000000000000000000000000000000000000000000000000000000000000000000000000000000000000000000000000000000000000000000000000000000000000000000000000000000000000000000000000000000000000000000000000000F52800C300000FC3000000C3
310
0F00C3C3C300C30F000000002828282828ECECF5000000000000000000F52800C30F000FC30000000F0F0000C3C3000F0F000000002828282828ECEC00F50000000000000000F528000000000FC30000000F0F00C3C3C3000F0F000000002828282828282828F5000000000000000000000000000000000000000000000000
310
000000000000000000000000000000000000000000000000000000000000000000000000000000000000000000000000000000000000000000000000000000000000000000000000000000000000000000000000000000000000000000000000000000000000000000000000000000000000000000F52800C3C300F5C3C3C3
310
C3C3F5BEC3C3C300C3F5C3C3000028282828282828F5000000000000000000F52800F5F500F5F5C3C3C30FF5BEBEC3C3000FF5C3C300002828ECECEC282800F50000000000000000F52800000000F5F5C3C3C3C30FBEC3C3C3000FC3C3C300002828ECECEC282828F500000000000000000000000000000000000000000000
310
0000000000000000000000000000000000000000000000000000000000000000000000000000000000000000000000000000000000000000000000000000000000000000000000000000000000000000000000000000000000000000000000000000000000000000000000000000000000000000000000F52800C3C300F5C3
310
C30000C30FBEC3C3C300C30F0000000028282828282828F5000000000000000000F52800F5F500F5F5C300000F0FBEBEC3C3000F0F00000000ECECECECECEC2800F50000000000000000F52800000000F5C3C30000F5F5BEBEC3C3000F0F00000000ECECECECECEC0028F50000000000000000000000000000000000000000
310
00000000000000000000000000000000000000000000000000000000000000000000000000000000000000000000000000000000000000000000000000000000000000000000000000000000000000000000000000000000000000000000000000000000000000000000000000000000000000000000000000F52800BEC300
310
C3C3C3BEBEC3BEBEC3C3C3BEC3BEBEC3C3C328000000000028F5000000000000000000F52800F5BE00BEF5C3C3BEF5F5BEBEC3C3BEF5F5BEBEC3C32800000000002800F50000000000000000F52800000000C3C3C3C3BEF5F5BEBEC3C3BEF5F5BEBEC3C32800000000000028F5000000000000000000000000000000000000
310
000000000000000000000000000000000000000000000000000000000000000000000000000000000000000000000000000000000000000000000000000000000000000000000000000000000000000000000000000000000000000000000000000000000000000000000000000000000000000000000000000000F52800BE
310
C3C3C3C3C3C3C3C3C3C3C3C3C3C3C3C3C3C3000028000000000028F5000000000000000000F52800F5BEC3BEF5C300BEF5BEBEC3C3C3BEF5F5BEBE00002800000000002800F50000000000000000F52800000000C3C3C300BEF5BEBEC3C3C3BEF5F5BEBE00002800000000000028F500000000000000000000000000000000
310
0000000000000000000000000000000000000000000000000000000000000000000000000000000000000000000000000000000000000000000000000000000000000000000000000000000000000000000000000000000000000000000000000000000000000000000000000000000000000000000000000000000000F528
310
ECECECECECECECBEC3C3C3C3C300C3C3C3F5C3C3000028000000000028F5000000000000000000F528ECECECECECECECC3BEF5F5BEBE0000BEF5F5BEBEC3002800000000002800F50000000000000000F528000000ECECECECC3C3C3F5C3BE0000C3C3F5C3BEC3002800000000000028F50000000000000000000000000000
310
00000000000000000000000000000000000000000000000000000000000000000000000000000000000000000000000000000000000000000000000000000000000000000000000000000000000000000000000000000000000000000000000000000000000000000000000000000000000000000000000000000000000000
310
F528282828282828282828F5F528282828BEF5F5BEBE282828000000000028F5000000000000000000F5282828282828282828BEF5F5BEBE2828BEF5F5BEBE28282800000000002800F50000000000000000F5282828282828282828BEF5F5BEBE2828BEF5F5BEBE28282800000000000028F5000000000000000000000000
310
00000000000000000000000000000000000000000000000000000000000000000000000000000000000000000000000000000000000000000000000000000000000000000000000000000000000000000000000000000000000000000000000000000000000000000000000000000000000000000000000000000000000000
310
0000F528ECECECECECEC28282828282828282828282828282828ECECEC00000028F5000000000000000000F528ECECECECECEC28282828282828282828282828282828ECECEC0000002800F50000000000000000F528ECECECECECEC28282828282828282828282828282828ECECECEC00000028F500000000000000000000
310
00000000000000000000000000000000000000000000000000000000000000000000000000000000000000000000000000000000000000000000000000000000000000000000000000000000000000000000000000000000000000000000000000000000000000000000000000000000000000000000000000000000000000
310
00000000F52800000000000000000000000000000000000000000000ECECECECEC0028F5000000000000000000F52800000000000000000000000000000000000000000000ECECECECEC002800F50000000000000000F52800000000000000000000000000000000000000000000ECECECEC00000028F50000000000000000
310
00000000000000000000000000000000000000000000000000000000000000000000000000000000000000000000000000000000000000000000000000000000000000000000000000000000000000000000000000000000000000000000000000000000000000000000000000000000000000000000000000000000000000
310
000000000000F52800000000000000000000000000000000000000000000ECECECEC000028F5000000000000000000F52800000000000000000000000000000000000000000000ECECECEC00002800F50000000000000000F52800000000000000000000000000000000000000000000ECECECEC00000028F5000000000000
310
00000000000000000000000000000000000000000000000000000000000000000000000000000000000000000000000000000000000000000000000000000000000000000000000000000000000000000000000000000000000000000000000000000000000000000000000000000000000000000000000000000000000000
310
0000000000000000F52800000000000000000000000000000000000000000000ECECECECEC0028F5000000000000000000F52800000000000000000000000000000000000000000000ECECECECEC002800F50000000000000000F52800000000000000000000000000000000000000000000ECECECEC00000028F500000000
310
00000000000000000000000000000000000000000000000000000000000000000000000000000000000000000000000000000000000000000000000000000000000000000000000000000000000000000000000000000000000000000000000000000000000000000000000000000000000000000000000000000000000000
310
00000000000000000000F52800C300000FC300C3C30F0FBEBEC3C3000F0FC3C30000ECECECEC000028F5000000000000000000F528000F0F000F0F00C3C3C30FBEC3C3C3000FC3C3C30000ECECECEC00002800F50000000000000000F528000000000FC300C3C3C30F00C3C3C3000FC3C3C30000ECECECEC00000028F50000
310
00000000000000000000000000000000000000000000000000000000000000000000000000000000000000000000000000000000000000000000000000000000000000000000000000000000000000000000000000000000000000000000000000000000000000000000000000000000000000000000000000000000000000
310
000000000000000000000000F52800C3C3000FC3C300000F0FBEC3C3C3000F0F00000000EC282828282828F5000000000000000000F528000FC3000F0FC300000F0FBEC3C3C3000F0F00000000ECEC282828282800F50000000000000000F528000000000FC3C300000F0F00C300C3000F0F00000000ECEC282828282828F5
310
00000000000000000000000000000000000000000000000000000000000000000000000000000000000000000000000000000000000000000000000000000000000000000000000000000000000000000000000000000000000000000000000000000000000000000000000000000000000000000000000000000000000000
310
0000000000000000000000000000F52800BEC300BEC3C3BEBEF50FBEBEC3C3BE0F0FBEBEC3C328ECECECECEC28F5000000000000000000F528000FC3000F0FC300BEF5F5BEC3C3C3BEF5F5BEBEC3C328ECECECECECEC00F50000000000000000F528000000000FC3C300BE0F0FBEC300C3BE0F0FBEBEC3C32828ECECECECEC
310
28F50000000000000000000000000000000000000000000000000000000000000000000000000000000000000000000000000000000000000000000000000000000000000000000000000000000000000000000000000000000000000000000000000000000000000000000000000000000000000000000000000000000000
310
00000000000000000000000000000000F528000FC300C3C3C3BEBEF5BEBEC3C3C3BEF5F5BEBEC30028ECECEC282828F5000000000000000000F52800C3C300C3C3C3C3BEF5F5BEC3C3C3BEF5F5C3C3C3002828ECEC28282800F50000000000000000F52800000000C3C3C300BEF5F5BEC3C3C3BEBEF5BEC3C3002828282828
310
282828F5000000000000000000000000000000000000000000000000000000000000000000000000000000000000000000000000000000000000000000000000000000000000000000000000000000000000000000000000000000000000000000000000000000000000000000000000000000000000000000000000000000
310
000000000000000000000000000000000000F528ECECECECECECECBEBEF5F5BEBE0000BEF5F5BEBE000028ECECECECECECF5000000000000000000F528ECC3C3C3ECECC300C3C3F5C3C30000C3C3F5C3C3000028ECECECECECEC00F50000000000000000F528000000ECECC3C3C3C3C3F5C3C30000C3C3F5C3C3C3002828EC
310
ECECECEC28F500000000000000000000000000000000000000000000000000000000000000000000000000000000000000000000000000000000000000000000000000000000000000000000000000000000000000000000000000000000000000000000000000000000000000000000000000000000000000000000000000
310
0000000000000000000000000000000000000000F528ECECECECECECECBEBEF5F5BEBE00C3BEF5F5BEC3000028282828282828F5000000000000000000F528ECECECECECECECC3BEF5F5BEBE0000BEF5F5BEBEC3002828282828282800F50000000000000000F528000000ECECECEC00BEF5F5BEBEC300BEBEF5BEBEBE0028
310
28282828282828F50000000000000000000000000000000000000000000000000000000000000000000000000000000000000000000000000000000000000000000000000000000000000000000000000000000000000000000000000000000000000000000000000000000000000000000000000000000000000000000000
310
00000000000000000000000000000000000000000000F528ECECECECECEC28282828282828282828282828BE282828282828282828F5000000000000000000F528ECECECECECEC28282828282828282828282828BE28282828282828282800F50000000000000000F528ECECECECECEC28282828282828282828282828BEBE
310
282828282828282828F5000000000000000000000000000000000000000000000000000000000000000000000000000000000000000000000000000000000000000000000000000000000000000000000000000000000000000000000000000000000000000000000000000000000000000000000000000000000000000000
310
000000000000000000000000000000000000000000000000F5F5F5F5F5F5F5F5F5F5F5F5F5F5F5F5F5F5F5F5F5F5F5F5F5F5F5F5F5F5F5F5000000000000000000F5F5F5F5F5F5F5F5F5F5F5F5F5F5F5F5F5F5F5F5F5F5F5F5F5F5F5F5F5F5F5F5F50000000000000000F5F5F5F5F5F5F5F5F5F5F5F5F5F5F5F5F5F5F5F5F5
310
F5F5F5F5F5F5F5F5F5F5F5F500000000000000000000000000000000000000000000000000000000000000000000000000000000000000000000000000000000000000000000000000000000000000000000000000000000000000000000000000000000000000000000000000000000000000000000000000000000000000
310
00000000000000000000000000000000000000000000000000000000000000000000000000000000000000000000000000000000000000000000000000000000000000000000000000000000000000000000000000000000000000000000000000000000000000000000000000000000000000000000000000000000000000
310
000000000000000000000000000000000000000000000000000000000000000000000000000000000000000000000000000000000000000000000000000000000000
  0
XRECORD
  5
1453F
102
{ACAD_REACTORS
330
1453E
102
}
330
1453E
100
AcDbXrecord
280
     1
102
SHADEPLOT
 70
     0
102
SHADEPLOTRESLEVEL
 70
     2
102
SHADEPLOTCUSTOMDPI
 70
   300
  0
XRECORD
  5
14541
102
{ACAD_REACTORS
330
3DB1
102
}
330
3DB1
100
AcDbXrecord
280
     1
102
MATERIAL
148
0.0
149
0.0
149
0.0
 93
        0
 94
      127
282
     0
 72
     0
 77
     0
171
     0
175
     0
179
     0
273
     0
  0
XRECORD
  5
3DB3
102
{ACAD_REACTORS
330
3DB1
102
}
330
3DB1
100
AcDbXrecord
280
     1
270
     1
271
     1
  0
XRECORD
  5
3DB2
102
{ACAD_REACTORS
330
3DB1
102
}
330
3DB1
100
AcDbXrecord
280
     1
270
     1
271
     1
  0
XRECORD
  5
3DB6
102
{ACAD_REACTORS
330
3DB1
102
}
330
3DB1
100
AcDbXrecord
280
     1
270
     1
271
     1
  0
XRECORD
  5
3DB5
102
{ACAD_REACTORS
330
3DB1
102
}
330
3DB1
100
AcDbXrecord
280
     1
270
     1
271
     1
  0
XRECORD
  5
3DB7
102
{ACAD_REACTORS
330
3DB1
102
}
330
3DB1
100
AcDbXrecord
280
     1
270
     1
271
     1
  0
XRECORD
  5
3DB4
102
{ACAD_REACTORS
330
3DB1
102
}
330
3DB1
100
AcDbXrecord
280
     1
270
     1
271
     1
  0
XRECORD
  5
14540
102
{ACAD_REACTORS
330
3DA9
102
}
330
3DA9
100
AcDbXrecord
280
     1
102
MATERIAL
148
0.0
149
0.0
149
0.0
 93
        0
 94
      127
282
     0
 72
     0
 77
     0
171
     0
175
     0
179
     0
273
     0
  0
XRECORD
  5
3DAB
102
{ACAD_REACTORS
330
3DA9
102
}
330
3DA9
100
AcDbXrecord
280
     1
270
     1
271
     1
  0
XRECORD
  5
3DAA
102
{ACAD_REACTORS
330
3DA9
102
}
330
3DA9
100
AcDbXrecord
280
     1
270
     1
271
     1
  0
XRECORD
  5
3DAE
102
{ACAD_REACTORS
330
3DA9
102
}
330
3DA9
100
AcDbXrecord
280
     1
270
     1
271
     1
  0
XRECORD
  5
3DAD
102
{ACAD_REACTORS
330
3DA9
102
}
330
3DA9
100
AcDbXrecord
280
     1
270
     1
271
     1
  0
XRECORD
  5
3DAF
102
{ACAD_REACTORS
330
3DA9
102
}
330
3DA9
100
AcDbXrecord
280
     1
270
     1
271
     1
  0
XRECORD
  5
3DAC
102
{ACAD_REACTORS
330
3DA9
102
}
330
3DA9
100
AcDbXrecord
280
     1
270
     1
271
     1
  0
XRECORD
  5
14542
102
{ACAD_REACTORS
330
3DB9
102
}
330
3DB9
100
AcDbXrecord
280
     1
102
MATERIAL
148
0.0
149
0.0
149
0.0
 93
        0
 94
      127
282
     0
 72
     0
 77
     0
171
     0
175
     0
179
     0
273
     0
  0
XRECORD
  5
3DBB
102
{ACAD_REACTORS
330
3DB9
102
}
330
3DB9
100
AcDbXrecord
280
     1
270
     1
271
     1
  0
XRECORD
  5
3DBA
102
{ACAD_REACTORS
330
3DB9
102
}
330
3DB9
100
AcDbXrecord
280
     1
270
     1
271
     1
  0
XRECORD
  5
3DBE
102
{ACAD_REACTORS
330
3DB9
102
}
330
3DB9
100
AcDbXrecord
280
     1
270
     1
271
     1
  0
XRECORD
  5
3DBD
102
{ACAD_REACTORS
330
3DB9
102
}
330
3DB9
100
AcDbXrecord
280
     1
270
     1
271
     1
  0
XRECORD
  5
3DBF
102
{ACAD_REACTORS
330
3DB9
102
}
330
3DB9
100
AcDbXrecord
280
     1
270
     1
271
     1
  0
XRECORD
  5
3DBC
102
{ACAD_REACTORS
330
3DB9
102
}
330
3DB9
100
AcDbXrecord
280
     1
270
     1
271
     1
  0
XRECORD
  5
14539
102
{ACAD_REACTORS
330
14538
102
}
330
14538
100
AcDbXrecord
280
     1
102
ACAD_ROUNDTRIP_2012_MLEADER_STYLE
298
     1
  0
CELLSTYLEMAP
  5
14537
102
{ACAD_REACTORS
330
14536
102
}
330
14536
100
AcDbCellStyleMap
 90
        3
300
CELLSTYLE
  1
TABLEFORMAT_BEGIN
 90
        5
170
     1
 91
        0
 92
    32768
 62
   257
 93
        1
300
CONTENTFORMAT
  1
CONTENTFORMAT_BEGIN
 90
        0
 91
        0
 92
        4
 93
        0
300

 40
0.0
140
1.0
 94
        5
 62
     0
340
7
144
0.25
309
CONTENTFORMAT_END
171
     0
 94
        6
 95
        1
302
GRIDFORMAT
  1
GRIDFORMAT_BEGIN
 90
        0
 91
        1
 62
     0
 92
       -2
340
0
 93
        0
 40
0.045
309
GRIDFORMAT_END
 95
        2
302
GRIDFORMAT
  1
GRIDFORMAT_BEGIN
 90
        0
 91
        1
 62
     0
 92
       -2
340
0
 93
        0
 40
0.045
309
GRIDFORMAT_END
 95
        4
302
GRIDFORMAT
  1
GRIDFORMAT_BEGIN
 90
        0
 91
        1
 62
     0
 92
       -2
340
0
 93
        0
 40
0.045
309
GRIDFORMAT_END
 95
        8
302
GRIDFORMAT
  1
GRIDFORMAT_BEGIN
 90
        0
 91
        1
 62
     0
 92
       -2
340
0
 93
        0
 40
0.045
309
GRIDFORMAT_END
 95
       16
302
GRIDFORMAT
  1
GRIDFORMAT_BEGIN
 90
        0
 91
        1
 62
     0
 92
       -2
340
0
 93
        0
 40
0.045
309
GRIDFORMAT_END
 95
       32
302
GRIDFORMAT
  1
GRIDFORMAT_BEGIN
 90
        0
 91
        1
 62
     0
 92
       -2
340
0
 93
        0
 40
0.045
309
GRIDFORMAT_END
309
TABLEFORMAT_END
  1
CELLSTYLE_BEGIN
 90
        1
 91
        1
300
_TITLE
309
CELLSTYLE_END
300
CELLSTYLE
  1
TABLEFORMAT_BEGIN
 90
        5
170
     1
 91
        0
 92
        0
 62
   257
 93
        1
300
CONTENTFORMAT
  1
CONTENTFORMAT_BEGIN
 90
        0
 91
        0
 92
        4
 93
        0
300

 40
0.0
140
1.0
 94
        5
 62
     0
340
7
144
0.18
309
CONTENTFORMAT_END
171
     0
 94
        6
 95
        1
302
GRIDFORMAT
  1
GRIDFORMAT_BEGIN
 90
        0
 91
        1
 62
     0
 92
       -2
340
0
 93
        0
 40
0.045
309
GRIDFORMAT_END
 95
        2
302
GRIDFORMAT
  1
GRIDFORMAT_BEGIN
 90
        0
 91
        1
 62
     0
 92
       -2
340
0
 93
        0
 40
0.045
309
GRIDFORMAT_END
 95
        4
302
GRIDFORMAT
  1
GRIDFORMAT_BEGIN
 90
        0
 91
        1
 62
     0
 92
       -2
340
0
 93
        0
 40
0.045
309
GRIDFORMAT_END
 95
        8
302
GRIDFORMAT
  1
GRIDFORMAT_BEGIN
 90
        0
 91
        1
 62
     0
 92
       -2
340
0
 93
        0
 40
0.045
309
GRIDFORMAT_END
 95
       16
302
GRIDFORMAT
  1
GRIDFORMAT_BEGIN
 90
        0
 91
        1
 62
     0
 92
       -2
340
0
 93
        0
 40
0.045
309
GRIDFORMAT_END
 95
       32
302
GRIDFORMAT
  1
GRIDFORMAT_BEGIN
 90
        0
 91
        1
 62
     0
 92
       -2
340
0
 93
        0
 40
0.045
309
GRIDFORMAT_END
309
TABLEFORMAT_END
  1
CELLSTYLE_BEGIN
 90
        2
 91
        1
300
_HEADER
309
CELLSTYLE_END
300
CELLSTYLE
  1
TABLEFORMAT_BEGIN
 90
        5
170
     1
 91
        0
 92
        0
 62
   257
 93
        1
300
CONTENTFORMAT
  1
CONTENTFORMAT_BEGIN
 90
        0
 91
        0
 92
        4
 93
        0
300

 40
0.0
140
1.0
 94
        2
 62
     0
340
7
144
0.18
309
CONTENTFORMAT_END
171
     0
 94
        6
 95
        1
302
GRIDFORMAT
  1
GRIDFORMAT_BEGIN
 90
        0
 91
        1
 62
     0
 92
       -2
340
0
 93
        0
 40
0.045
309
GRIDFORMAT_END
 95
        2
302
GRIDFORMAT
  1
GRIDFORMAT_BEGIN
 90
        0
 91
        1
 62
     0
 92
       -2
340
0
 93
        0
 40
0.045
309
GRIDFORMAT_END
 95
        4
302
GRIDFORMAT
  1
GRIDFORMAT_BEGIN
 90
        0
 91
        1
 62
     0
 92
       -2
340
0
 93
        0
 40
0.045
309
GRIDFORMAT_END
 95
        8
302
GRIDFORMAT
  1
GRIDFORMAT_BEGIN
 90
        0
 91
        1
 62
     0
 92
       -2
340
0
 93
        0
 40
0.045
309
GRIDFORMAT_END
 95
       16
302
GRIDFORMAT
  1
GRIDFORMAT_BEGIN
 90
        0
 91
        1
 62
     0
 92
       -2
340
0
 93
        0
 40
0.045
309
GRIDFORMAT_END
 95
       32
302
GRIDFORMAT
  1
GRIDFORMAT_BEGIN
 90
        0
 91
        1
 62
     0
 92
       -2
340
0
 93
        0
 40
0.045
309
GRIDFORMAT_END
309
TABLEFORMAT_END
  1
CELLSTYLE_BEGIN
 90
        3
 91
        2
300
_DATA
309
CELLSTYLE_END
  0
XRECORD
  5
1453C
102
{ACAD_REACTORS
330
14536
102
}
330
14536
100
AcDbXrecord
280
     1
102
ACAD_ROUNDTRIP_PRE2007_TABLESTYLE
 90
        4
 91
        0
  1

 92
        4
 93
        0
  2

 94
        4
 95
        0
  3

  0
XRECORD
  5
1454E
102
{ACAD_REACTORS
330
1454D
102
}
330
1454D
100
AcDbXrecord
280
     1
102
RTVSPropertyOp0
 70
     1
102
RTVSPropertyOp1
 70
     1
102
RTVSPropertyOp2
 70
     1
102
RTVSPropertyOp3
 70
     1
102
RTVSPropertyOp4
 70
     1
102
RTVSPropertyOp5
 70
     1
102
RTVSPropertyOp6
 70
     1
102
RTVSPropertyOp7
 70
     1
102
RTVSPropertyOp8
 70
     1
102
RTVSPropertyOp9
 70
     1
102
RTVSPropertyOp10
 70
     1
102
RTVSPropertyOp11
 70
     1
102
RTVSPropertyOp12
 70
     1
102
RTVSPropertyOp13
 70
     1
102
RTVSPropertyOp14
 70
     1
102
RTVSPropertyOp15
 70
     1
102
RTVSPropertyOp16
 70
     1
102
RTVSPropertyOp17
 70
     1
102
RTVSPropertyOp18
 70
     1
102
RTVSPropertyOp19
 70
     1
102
RTVSPropertyOp20
 70
     1
102
RTVSPropertyOp21
 70
     1
102
RTVSPropertyOp22
 70
     1
102
RTVSPropertyOp23
 70
     1
102
RTVSPropertyOp24
 70
     1
102
RTVSPropertyOp25
 70
     1
102
RTVSPropertyOp26
 70
     1
102
RTVSPropertyOp27
 70
     1
102
RTVSPropertyOp28
 70
     1
102
RTVSPropertyOp29
 70
     1
102
RTVSPropertyOp30
 70
     1
102
RTVSPropertyOp31
 70
     1
102
RTVSPropertyOp32
 70
     1
  0
XRECORD
  5
1454C
102
{ACAD_REACTORS
330
1454B
102
}
330
1454B
100
AcDbXrecord
280
     1
102
RTVSPropertyOp0
 70
     1
102
RTVSPropertyOp1
 70
     1
102
RTVSPropertyOp2
 70
     1
102
RTVSPropertyOp3
 70
     1
102
RTVSPropertyOp4
 70
     1
102
RTVSPropertyOp5
 70
     1
102
RTVSPropertyOp6
 70
     1
102
RTVSPropertyOp7
 70
     1
102
RTVSPropertyOp8
 70
     1
102
RTVSPropertyOp9
 70
     1
102
RTVSPropertyOp10
 70
     1
102
RTVSPropertyOp11
 70
     1
102
RTVSPropertyOp12
 70
     1
102
RTVSPropertyOp13
 70
     1
102
RTVSPropertyOp14
 70
     1
102
RTVSPropertyOp15
 70
     1
102
RTVSPropertyOp16
 70
     1
102
RTVSPropertyOp17
 70
     1
102
RTVSPropertyOp18
 70
     1
102
RTVSPropertyOp19
 70
     1
102
RTVSPropertyOp20
 70
     1
102
RTVSPropertyOp21
 70
     1
102
RTVSPropertyOp22
 70
     1
102
RTVSPropertyOp23
 70
     1
102
RTVSPropertyOp24
 70
     1
102
RTVSPropertyOp25
 70
     1
102
RTVSPropertyOp26
 70
     1
102
RTVSPropertyOp27
 70
     1
102
RTVSPropertyOp28
 70
     1
102
RTVSPropertyOp29
 70
     1
102
RTVSPropertyOp30
 70
     1
102
RTVSPropertyOp31
 70
     1
102
RTVSPropertyOp32
 70
     1
  0
XRECORD
  5
1455A
102
{ACAD_REACTORS
330
14559
102
}
330
14559
100
AcDbXrecord
280
     1
102
RTVSPropertyOp0
 70
     1
102
RTVSPropertyOp1
 70
     1
102
RTVSPropertyOp2
 70
     1
102
RTVSPropertyOp3
 70
     1
102
RTVSPropertyOp4
 70
     1
102
RTVSPropertyOp5
 70
     1
102
RTVSPropertyOp6
 70
     1
102
RTVSPropertyOp7
 70
     1
102
RTVSPropertyOp8
 70
     1
102
RTVSPropertyOp9
 70
     1
102
RTVSPropertyOp10
 70
     1
102
RTVSPropertyOp11
 70
     1
102
RTVSPropertyOp12
 70
     1
102
RTVSPropertyOp13
 70
     1
102
RTVSPropertyOp14
 70
     1
102
RTVSPropertyOp15
 70
     1
102
RTVSPropertyOp16
 70
     1
102
RTVSPropertyOp17
 70
     1
102
RTVSPropertyOp18
 70
     1
102
RTVSPropertyOp19
 70
     1
102
RTVSPropertyOp20
 70
     1
102
RTVSPropertyOp21
 70
     1
102
RTVSPropertyOp22
 70
     1
102
RTVSPropertyOp23
 70
     1
102
RTVSPropertyOp24
 70
     1
102
RTVSPropertyOp25
 70
     1
102
RTVSPropertyOp26
 70
     1
102
RTVSPropertyOp27
 70
     1
102
RTVSPropertyOp28
 70
     1
102
RTVSPropertyOp29
 70
     1
102
RTVSPropertyOp30
 70
     1
102
RTVSPropertyOp31
 70
     1
102
RTVSPropertyOp32
 70
     1
  0
XRECORD
  5
14562
102
{ACAD_REACTORS
330
14561
102
}
330
14561
100
AcDbXrecord
280
     1
102
RTVSPropertyOp0
 70
     1
102
RTVSPropertyOp1
 70
     1
102
RTVSPropertyOp2
 70
     1
102
RTVSPropertyOp3
 70
     1
102
RTVSPropertyOp4
 70
     1
102
RTVSPropertyOp5
 70
     1
102
RTVSPropertyOp6
 70
     1
102
RTVSPropertyOp7
 70
     1
102
RTVSPropertyOp8
 70
     1
102
RTVSPropertyOp9
 70
     1
102
RTVSPropertyOp10
 70
     1
102
RTVSPropertyOp11
 70
     1
102
RTVSPropertyOp12
 70
     1
102
RTVSPropertyOp13
 70
     1
102
RTVSPropertyOp14
 70
     1
102
RTVSPropertyOp15
 70
     1
102
RTVSPropertyOp16
 70
     1
102
RTVSPropertyOp17
 70
     1
102
RTVSPropertyOp18
 70
     1
102
RTVSPropertyOp19
 70
     1
102
RTVSPropertyOp20
 70
     1
102
RTVSPropertyOp21
 70
     1
102
RTVSPropertyOp22
 70
     1
102
RTVSPropertyOp23
 70
     1
102
RTVSPropertyOp24
 70
     1
102
RTVSPropertyOp25
 70
     1
102
RTVSPropertyOp26
 70
     1
102
RTVSPropertyOp27
 70
     1
102
RTVSPropertyOp28
 70
     1
102
RTVSPropertyOp29
 70
     1
102
RTVSPropertyOp30
 70
     1
102
RTVSPropertyOp31
 70
     1
102
RTVSPropertyOp32
 70
     1
  0
XRECORD
  5
14554
102
{ACAD_REACTORS
330
14553
102
}
330
14553
100
AcDbXrecord
280
     1
102
RTVSPropertyOp0
 70
     1
102
RTVSPropertyOp1
 70
     1
102
RTVSPropertyOp2
 70
     1
102
RTVSPropertyOp3
 70
     1
102
RTVSPropertyOp4
 70
     1
102
RTVSPropertyOp5
 70
     1
102
RTVSPropertyOp6
 70
     1
102
RTVSPropertyOp7
 70
     1
102
RTVSPropertyOp8
 70
     1
102
RTVSPropertyOp9
 70
     1
102
RTVSPropertyOp10
 70
     1
102
RTVSPropertyOp11
 70
     1
102
RTVSPropertyOp12
 70
     1
102
RTVSPropertyOp13
 70
     1
102
RTVSPropertyOp14
 70
     1
102
RTVSPropertyOp15
 70
     1
102
RTVSPropertyOp16
 70
     1
102
RTVSPropertyOp17
 70
     1
102
RTVSPropertyOp18
 70
     1
102
RTVSPropertyOp19
 70
     1
102
RTVSPropertyOp20
 70
     1
102
RTVSPropertyOp21
 70
     1
102
RTVSPropertyOp22
 70
     1
102
RTVSPropertyOp23
 70
     1
102
RTVSPropertyOp24
 70
     1
102
RTVSPropertyOp25
 70
     1
102
RTVSPropertyOp26
 70
     1
102
RTVSPropertyOp27
 70
     1
102
RTVSPropertyOp28
 70
     1
102
RTVSPropertyOp29
 70
     1
102
RTVSPropertyOp30
 70
     1
102
RTVSPropertyOp31
 70
     1
102
RTVSPropertyOp32
 70
     1
  0
XRECORD
  5
14558
102
{ACAD_REACTORS
330
14557
102
}
330
14557
100
AcDbXrecord
280
     1
102
RTVSPropertyOp0
 70
     1
102
RTVSPropertyOp1
 70
     1
102
RTVSPropertyOp2
 70
     1
102
RTVSPropertyOp3
 70
     1
102
RTVSPropertyOp4
 70
     1
102
RTVSPropertyOp5
 70
     1
102
RTVSPropertyOp6
 70
     1
102
RTVSPropertyOp7
 70
     1
102
RTVSPropertyOp8
 70
     1
102
RTVSPropertyOp9
 70
     1
102
RTVSPropertyOp10
 70
     1
102
RTVSPropertyOp11
 70
     1
102
RTVSPropertyOp12
 70
     1
102
RTVSPropertyOp13
 70
     1
102
RTVSPropertyOp14
 70
     1
102
RTVSPropertyOp15
 70
     1
102
RTVSPropertyOp16
 70
     1
102
RTVSPropertyOp17
 70
     1
102
RTVSPropertyOp18
 70
     1
102
RTVSPropertyOp19
 70
     1
102
RTVSPropertyOp20
 70
     1
102
RTVSPropertyOp21
 70
     1
102
RTVSPropertyOp22
 70
     1
102
RTVSPropertyOp23
 70
     1
102
RTVSPropertyOp24
 70
     1
102
RTVSPropertyOp25
 70
     1
102
RTVSPropertyOp26
 70
     1
102
RTVSPropertyOp27
 70
     1
102
RTVSPropertyOp28
 70
     1
102
RTVSPropertyOp29
 70
     1
102
RTVSPropertyOp30
 70
     1
102
RTVSPropertyOp31
 70
     1
102
RTVSPropertyOp32
 70
     1
  0
XRECORD
  5
14572
102
{ACAD_REACTORS
330
14571
102
}
330
14571
100
AcDbXrecord
280
     1
102
RTVSPropertyOp0
 70
     0
102
RTVSPropertyOp1
 70
     0
102
RTVSPropertyOp2
 70
     0
102
RTVSPropertyOp3
 70
     0
102
RTVSPropertyOp4
 70
     0
102
RTVSPropertyOp5
 70
     0
102
RTVSPropertyOp6
 70
     0
102
RTVSPropertyOp7
 70
     0
102
RTVSPropertyOp8
 70
     0
102
RTVSPropertyOp9
 70
     0
102
RTVSPropertyOp10
 70
     0
102
RTVSPropertyOp11
 70
     0
102
RTVSPropertyOp12
 70
     0
102
RTVSPropertyOp13
 70
     0
102
RTVSPropertyOp14
 70
     2
102
RTVSPropertyOp15
 70
     0
102
RTVSPropertyOp16
 70
     0
102
RTVSPropertyOp17
 70
     0
102
RTVSPropertyOp18
 70
     0
102
RTVSPropertyOp19
 70
     0
102
RTVSPropertyOp20
 70
     0
102
RTVSPropertyOp21
 70
     0
102
RTVSPropertyOp22
 70
     0
102
RTVSPropertyOp23
 70
     0
102
RTVSPropertyOp24
 70
     0
102
RTVSPropertyOp25
 70
     0
102
RTVSPropertyOp26
 70
     0
102
RTVSPropertyOp27
 70
     0
102
RTVSPropertyOp28
 70
     1
102
RTVSPropertyOp29
 70
     1
102
RTVSPropertyOp30
 70
     1
102
RTVSPropertyOp31
 70
     1
102
RTVSPropertyOp32
 70
     1
  0
XRECORD
  5
14560
102
{ACAD_REACTORS
330
1455F
102
}
330
1455F
100
AcDbXrecord
280
     1
102
RTVSPropertyOp0
 70
     1
102
RTVSPropertyOp1
 70
     1
102
RTVSPropertyOp2
 70
     1
102
RTVSPropertyOp3
 70
     1
102
RTVSPropertyOp4
 70
     1
102
RTVSPropertyOp5
 70
     1
102
RTVSPropertyOp6
 70
     1
102
RTVSPropertyOp7
 70
     1
102
RTVSPropertyOp8
 70
     1
102
RTVSPropertyOp9
 70
     1
102
RTVSPropertyOp10
 70
     1
102
RTVSPropertyOp11
 70
     1
102
RTVSPropertyOp12
 70
     1
102
RTVSPropertyOp13
 70
     1
102
RTVSPropertyOp14
 70
     1
102
RTVSPropertyOp15
 70
     1
102
RTVSPropertyOp16
 70
     1
102
RTVSPropertyOp17
 70
     1
102
RTVSPropertyOp18
 70
     1
102
RTVSPropertyOp19
 70
     1
102
RTVSPropertyOp20
 70
     1
102
RTVSPropertyOp21
 70
     1
102
RTVSPropertyOp22
 70
     1
102
RTVSPropertyOp23
 70
     1
102
RTVSPropertyOp24
 70
     1
102
RTVSPropertyOp25
 70
     1
102
RTVSPropertyOp26
 70
     1
102
RTVSPropertyOp27
 70
     1
102
RTVSPropertyOp28
 70
     1
102
RTVSPropertyOp29
 70
     1
102
RTVSPropertyOp30
 70
     1
102
RTVSPropertyOp31
 70
     1
102
RTVSPropertyOp32
 70
     1
  0
XRECORD
  5
14544
102
{ACAD_REACTORS
330
14543
102
}
330
14543
100
AcDbXrecord
280
     1
102
RTVSPropertyOp0
 70
     1
102
RTVSPropertyOp1
 70
     1
102
RTVSPropertyOp2
 70
     1
102
RTVSPropertyOp3
 70
     1
102
RTVSPropertyOp4
 70
     1
102
RTVSPropertyOp5
 70
     1
102
RTVSPropertyOp6
 70
     1
102
RTVSPropertyOp7
 70
     1
102
RTVSPropertyOp8
 70
     1
102
RTVSPropertyOp9
 70
     1
102
RTVSPropertyOp10
 70
     1
102
RTVSPropertyOp11
 70
     1
102
RTVSPropertyOp12
 70
     1
102
RTVSPropertyOp13
 70
     1
102
RTVSPropertyOp14
 70
     1
102
RTVSPropertyOp15
 70
     1
102
RTVSPropertyOp16
 70
     1
102
RTVSPropertyOp17
 70
     1
102
RTVSPropertyOp18
 70
     1
102
RTVSPropertyOp19
 70
     1
102
RTVSPropertyOp20
 70
     1
102
RTVSPropertyOp21
 70
     1
102
RTVSPropertyOp22
 70
     1
102
RTVSPropertyOp23
 70
     1
102
RTVSPropertyOp24
 70
     1
102
RTVSPropertyOp25
 70
     1
102
RTVSPropertyOp26
 70
     1
102
RTVSPropertyOp27
 70
     1
102
RTVSPropertyOp28
 70
     1
102
RTVSPropertyOp29
 70
     1
102
RTVSPropertyOp30
 70
     1
102
RTVSPropertyOp31
 70
     1
102
RTVSPropertyOp32
 70
     1
  0
XRECORD
  5
14546
102
{ACAD_REACTORS
330
14545
102
}
330
14545
100
AcDbXrecord
280
     1
102
RTVSPropertyOp0
 70
     1
102
RTVSPropertyOp1
 70
     1
102
RTVSPropertyOp2
 70
     1
102
RTVSPropertyOp3
 70
     1
102
RTVSPropertyOp4
 70
     1
102
RTVSPropertyOp5
 70
     1
102
RTVSPropertyOp6
 70
     1
102
RTVSPropertyOp7
 70
     1
102
RTVSPropertyOp8
 70
     1
102
RTVSPropertyOp9
 70
     1
102
RTVSPropertyOp10
 70
     1
102
RTVSPropertyOp11
 70
     1
102
RTVSPropertyOp12
 70
     1
102
RTVSPropertyOp13
 70
     1
102
RTVSPropertyOp14
 70
     1
102
RTVSPropertyOp15
 70
     1
102
RTVSPropertyOp16
 70
     1
102
RTVSPropertyOp17
 70
     1
102
RTVSPropertyOp18
 70
     1
102
RTVSPropertyOp19
 70
     1
102
RTVSPropertyOp20
 70
     1
102
RTVSPropertyOp21
 70
     1
102
RTVSPropertyOp22
 70
     1
102
RTVSPropertyOp23
 70
     1
102
RTVSPropertyOp24
 70
     1
102
RTVSPropertyOp25
 70
     1
102
RTVSPropertyOp26
 70
     1
102
RTVSPropertyOp27
 70
     1
102
RTVSPropertyOp28
 70
     1
102
RTVSPropertyOp29
 70
     1
102
RTVSPropertyOp30
 70
     1
102
RTVSPropertyOp31
 70
     1
102
RTVSPropertyOp32
 70
     1
  0
XRECORD
  5
14548
102
{ACAD_REACTORS
330
14547
102
}
330
14547
100
AcDbXrecord
280
     1
102
RTVSPropertyOp0
 70
     1
102
RTVSPropertyOp1
 70
     1
102
RTVSPropertyOp2
 70
     1
102
RTVSPropertyOp3
 70
     1
102
RTVSPropertyOp4
 70
     1
102
RTVSPropertyOp5
 70
     1
102
RTVSPropertyOp6
 70
     1
102
RTVSPropertyOp7
 70
     1
102
RTVSPropertyOp8
 70
     1
102
RTVSPropertyOp9
 70
     1
102
RTVSPropertyOp10
 70
     1
102
RTVSPropertyOp11
 70
     1
102
RTVSPropertyOp12
 70
     1
102
RTVSPropertyOp13
 70
     1
102
RTVSPropertyOp14
 70
     1
102
RTVSPropertyOp15
 70
     1
102
RTVSPropertyOp16
 70
     1
102
RTVSPropertyOp17
 70
     1
102
RTVSPropertyOp18
 70
     1
102
RTVSPropertyOp19
 70
     1
102
RTVSPropertyOp20
 70
     1
102
RTVSPropertyOp21
 70
     1
102
RTVSPropertyOp22
 70
     1
102
RTVSPropertyOp23
 70
     1
102
RTVSPropertyOp24
 70
     1
102
RTVSPropertyOp25
 70
     1
102
RTVSPropertyOp26
 70
     1
102
RTVSPropertyOp27
 70
     1
102
RTVSPropertyOp28
 70
     1
102
RTVSPropertyOp29
 70
     1
102
RTVSPropertyOp30
 70
     1
102
RTVSPropertyOp31
 70
     1
102
RTVSPropertyOp32
 70
     1
  0
XRECORD
  5
1454A
102
{ACAD_REACTORS
330
14549
102
}
330
14549
100
AcDbXrecord
280
     1
102
RTVSPropertyOp0
 70
     1
102
RTVSPropertyOp1
 70
     1
102
RTVSPropertyOp2
 70
     1
102
RTVSPropertyOp3
 70
     1
102
RTVSPropertyOp4
 70
     1
102
RTVSPropertyOp5
 70
     1
102
RTVSPropertyOp6
 70
     1
102
RTVSPropertyOp7
 70
     1
102
RTVSPropertyOp8
 70
     1
102
RTVSPropertyOp9
 70
     1
102
RTVSPropertyOp10
 70
     1
102
RTVSPropertyOp11
 70
     1
102
RTVSPropertyOp12
 70
     1
102
RTVSPropertyOp13
 70
     1
102
RTVSPropertyOp14
 70
     1
102
RTVSPropertyOp15
 70
     1
102
RTVSPropertyOp16
 70
     1
102
RTVSPropertyOp17
 70
     1
102
RTVSPropertyOp18
 70
     1
102
RTVSPropertyOp19
 70
     1
102
RTVSPropertyOp20
 70
     1
102
RTVSPropertyOp21
 70
     1
102
RTVSPropertyOp22
 70
     1
102
RTVSPropertyOp23
 70
     1
102
RTVSPropertyOp24
 70
     1
102
RTVSPropertyOp25
 70
     1
102
RTVSPropertyOp26
 70
     1
102
RTVSPropertyOp27
 70
     1
102
RTVSPropertyOp28
 70
     1
102
RTVSPropertyOp29
 70
     1
102
RTVSPropertyOp30
 70
     1
102
RTVSPropertyOp31
 70
     1
102
RTVSPropertyOp32
 70
     1
  0
XRECORD
  5
14552
102
{ACAD_REACTORS
330
14551
102
}
330
14551
100
AcDbXrecord
280
     1
102
RTVSPropertyOp0
 70
     1
102
RTVSPropertyOp1
 70
     1
102
RTVSPropertyOp2
 70
     1
102
RTVSPropertyOp3
 70
     1
102
RTVSPropertyOp4
 70
     1
102
RTVSPropertyOp5
 70
     1
102
RTVSPropertyOp6
 70
     1
102
RTVSPropertyOp7
 70
     1
102
RTVSPropertyOp8
 70
     1
102
RTVSPropertyOp9
 70
     1
102
RTVSPropertyOp10
 70
     1
102
RTVSPropertyOp11
 70
     1
102
RTVSPropertyOp12
 70
     1
102
RTVSPropertyOp13
 70
     1
102
RTVSPropertyOp14
 70
     1
102
RTVSPropertyOp15
 70
     1
102
RTVSPropertyOp16
 70
     1
102
RTVSPropertyOp17
 70
     1
102
RTVSPropertyOp18
 70
     1
102
RTVSPropertyOp19
 70
     1
102
RTVSPropertyOp20
 70
     1
102
RTVSPropertyOp21
 70
     1
102
RTVSPropertyOp22
 70
     1
102
RTVSPropertyOp23
 70
     1
102
RTVSPropertyOp24
 70
     1
102
RTVSPropertyOp25
 70
     1
102
RTVSPropertyOp26
 70
     1
102
RTVSPropertyOp27
 70
     1
102
RTVSPropertyOp28
 70
     1
102
RTVSPropertyOp29
 70
     1
102
RTVSPropertyOp30
 70
     1
102
RTVSPropertyOp31
 70
     1
102
RTVSPropertyOp32
 70
     1
  0
XRECORD
  5
1456E
102
{ACAD_REACTORS
330
1456D
102
}
330
1456D
100
AcDbXrecord
280
     1
102
RTVSPropertyOp0
 70
     0
102
RTVSPropertyOp1
 70
     0
102
RTVSPropertyOp2
 70
     0
102
RTVSPropertyOp3
 70
     0
102
RTVSPropertyOp4
 70
     0
102
RTVSPropertyOp5
 70
     0
102
RTVSPropertyOp6
 70
     0
102
RTVSPropertyOp7
 70
     0
102
RTVSPropertyOp8
 70
     0
102
RTVSPropertyOp9
 70
     0
102
RTVSPropertyOp10
 70
     0
102
RTVSPropertyOp11
 70
     0
102
RTVSPropertyOp12
 70
     0
102
RTVSPropertyOp13
 70
     0
102
RTVSPropertyOp14
 70
     2
102
RTVSPropertyOp15
 70
     0
102
RTVSPropertyOp16
 70
     0
102
RTVSPropertyOp17
 70
     0
102
RTVSPropertyOp18
 70
     0
102
RTVSPropertyOp19
 70
     0
102
RTVSPropertyOp20
 70
     0
102
RTVSPropertyOp21
 70
     0
102
RTVSPropertyOp22
 70
     0
102
RTVSPropertyOp23
 70
     0
102
RTVSPropertyOp24
 70
     0
102
RTVSPropertyOp25
 70
     0
102
RTVSPropertyOp26
 70
     0
102
RTVSPropertyOp27
 70
     0
102
RTVSPropertyOp28
 70
     1
102
RTVSPropertyOp29
 70
     1
102
RTVSPropertyOp30
 70
     1
102
RTVSPropertyOp31
 70
     1
102
RTVSPropertyOp32
 70
     1
  0
XRECORD
  5
1455E
102
{ACAD_REACTORS
330
1455D
102
}
330
1455D
100
AcDbXrecord
280
     1
102
RTVSPropertyOp0
 70
     1
102
RTVSPropertyOp1
 70
     1
102
RTVSPropertyOp2
 70
     1
102
RTVSPropertyOp3
 70
     1
102
RTVSPropertyOp4
 70
     1
102
RTVSPropertyOp5
 70
     1
102
RTVSPropertyOp6
 70
     1
102
RTVSPropertyOp7
 70
     1
102
RTVSPropertyOp8
 70
     1
102
RTVSPropertyOp9
 70
     1
102
RTVSPropertyOp10
 70
     1
102
RTVSPropertyOp11
 70
     1
102
RTVSPropertyOp12
 70
     1
102
RTVSPropertyOp13
 70
     1
102
RTVSPropertyOp14
 70
     1
102
RTVSPropertyOp15
 70
     1
102
RTVSPropertyOp16
 70
     1
102
RTVSPropertyOp17
 70
     1
102
RTVSPropertyOp18
 70
     1
102
RTVSPropertyOp19
 70
     1
102
RTVSPropertyOp20
 70
     1
102
RTVSPropertyOp21
 70
     1
102
RTVSPropertyOp22
 70
     1
102
RTVSPropertyOp23
 70
     1
102
RTVSPropertyOp24
 70
     1
102
RTVSPropertyOp25
 70
     1
102
RTVSPropertyOp26
 70
     1
102
RTVSPropertyOp27
 70
     1
102
RTVSPropertyOp28
 70
     1
102
RTVSPropertyOp29
 70
     1
102
RTVSPropertyOp30
 70
     1
102
RTVSPropertyOp31
 70
     1
102
RTVSPropertyOp32
 70
     1
  0
XRECORD
  5
14570
102
{ACAD_REACTORS
330
1456F
102
}
330
1456F
100
AcDbXrecord
280
     1
102
RTVSPropertyOp0
 70
     0
102
RTVSPropertyOp1
 70
     0
102
RTVSPropertyOp2
 70
     0
102
RTVSPropertyOp3
 70
     0
102
RTVSPropertyOp4
 70
     0
102
RTVSPropertyOp5
 70
     0
102
RTVSPropertyOp6
 70
     0
102
RTVSPropertyOp7
 70
     0
102
RTVSPropertyOp8
 70
     0
102
RTVSPropertyOp9
 70
     0
102
RTVSPropertyOp10
 70
     0
102
RTVSPropertyOp11
 70
     0
102
RTVSPropertyOp12
 70
     0
102
RTVSPropertyOp13
 70
     0
102
RTVSPropertyOp14
 70
     2
102
RTVSPropertyOp15
 70
     0
102
RTVSPropertyOp16
 70
     0
102
RTVSPropertyOp17
 70
     0
102
RTVSPropertyOp18
 70
     0
102
RTVSPropertyOp19
 70
     0
102
RTVSPropertyOp20
 70
     0
102
RTVSPropertyOp21
 70
     0
102
RTVSPropertyOp22
 70
     0
102
RTVSPropertyOp23
 70
     0
102
RTVSPropertyOp24
 70
     0
102
RTVSPropertyOp25
 70
     0
102
RTVSPropertyOp26
 70
     0
102
RTVSPropertyOp27
 70
     0
102
RTVSPropertyOp28
 70
     1
102
RTVSPropertyOp29
 70
     1
102
RTVSPropertyOp30
 70
     1
102
RTVSPropertyOp31
 70
     1
102
RTVSPropertyOp32
 70
     1
  0
XRECORD
  5
14556
102
{ACAD_REACTORS
330
14555
102
}
330
14555
100
AcDbXrecord
280
     1
102
RTVSPropertyOp0
 70
     1
102
RTVSPropertyOp1
 70
     1
102
RTVSPropertyOp2
 70
     1
102
RTVSPropertyOp3
 70
     1
102
RTVSPropertyOp4
 70
     1
102
RTVSPropertyOp5
 70
     1
102
RTVSPropertyOp6
 70
     1
102
RTVSPropertyOp7
 70
     1
102
RTVSPropertyOp8
 70
     1
102
RTVSPropertyOp9
 70
     1
102
RTVSPropertyOp10
 70
     1
102
RTVSPropertyOp11
 70
     1
102
RTVSPropertyOp12
 70
     1
102
RTVSPropertyOp13
 70
     1
102
RTVSPropertyOp14
 70
     1
102
RTVSPropertyOp15
 70
     1
102
RTVSPropertyOp16
 70
     1
102
RTVSPropertyOp17
 70
     1
102
RTVSPropertyOp18
 70
     1
102
RTVSPropertyOp19
 70
     1
102
RTVSPropertyOp20
 70
     1
102
RTVSPropertyOp21
 70
     1
102
RTVSPropertyOp22
 70
     1
102
RTVSPropertyOp23
 70
     1
102
RTVSPropertyOp24
 70
     1
102
RTVSPropertyOp25
 70
     1
102
RTVSPropertyOp26
 70
     1
102
RTVSPropertyOp27
 70
     1
102
RTVSPropertyOp28
 70
     1
102
RTVSPropertyOp29
 70
     1
102
RTVSPropertyOp30
 70
     1
102
RTVSPropertyOp31
 70
     1
102
RTVSPropertyOp32
 70
     1
  0
XRECORD
  5
1456C
102
{ACAD_REACTORS
330
1456B
102
}
330
1456B
100
AcDbXrecord
280
     1
102
RTVSPropertyOp0
 70
     1
102
RTVSPropertyOp1
 70
     1
102
RTVSPropertyOp2
 70
     1
102
RTVSPropertyOp3
 70
     1
102
RTVSPropertyOp4
 70
     1
102
RTVSPropertyOp5
 70
     1
102
RTVSPropertyOp6
 70
     1
102
RTVSPropertyOp7
 70
     1
102
RTVSPropertyOp8
 70
     1
102
RTVSPropertyOp9
 70
     1
102
RTVSPropertyOp10
 70
     1
102
RTVSPropertyOp11
 70
     1
102
RTVSPropertyOp12
 70
     1
102
RTVSPropertyOp13
 70
     1
102
RTVSPropertyOp14
 70
     1
102
RTVSPropertyOp15
 70
     1
102
RTVSPropertyOp16
 70
     1
102
RTVSPropertyOp17
 70
     1
102
RTVSPropertyOp18
 70
     1
102
RTVSPropertyOp19
 70
     1
102
RTVSPropertyOp20
 70
     1
102
RTVSPropertyOp21
 70
     1
102
RTVSPropertyOp22
 70
     1
102
RTVSPropertyOp23
 70
     1
102
RTVSPropertyOp24
 70
     1
102
RTVSPropertyOp25
 70
     1
102
RTVSPropertyOp26
 70
     1
102
RTVSPropertyOp27
 70
     1
102
RTVSPropertyOp28
 70
     1
102
RTVSPropertyOp29
 70
     1
102
RTVSPropertyOp30
 70
     1
102
RTVSPropertyOp31
 70
     1
102
RTVSPropertyOp32
 70
     1
  0
XRECORD
  5
1456A
102
{ACAD_REACTORS
330
14569
102
}
330
14569
100
AcDbXrecord
280
     1
102
RTVSPropertyOp0
 70
     1
102
RTVSPropertyOp1
 70
     1
102
RTVSPropertyOp2
 70
     1
102
RTVSPropertyOp3
 70
     1
102
RTVSPropertyOp4
 70
     1
102
RTVSPropertyOp5
 70
     1
102
RTVSPropertyOp6
 70
     1
102
RTVSPropertyOp7
 70
     1
102
RTVSPropertyOp8
 70
     1
102
RTVSPropertyOp9
 70
     1
102
RTVSPropertyOp10
 70
     1
102
RTVSPropertyOp11
 70
     1
102
RTVSPropertyOp12
 70
     1
102
RTVSPropertyOp13
 70
     1
102
RTVSPropertyOp14
 70
     1
102
RTVSPropertyOp15
 70
     1
102
RTVSPropertyOp16
 70
     1
102
RTVSPropertyOp17
 70
     1
102
RTVSPropertyOp18
 70
     1
102
RTVSPropertyOp19
 70
     1
102
RTVSPropertyOp20
 70
     1
102
RTVSPropertyOp21
 70
     1
102
RTVSPropertyOp22
 70
     1
102
RTVSPropertyOp23
 70
     1
102
RTVSPropertyOp24
 70
     1
102
RTVSPropertyOp25
 70
     1
102
RTVSPropertyOp26
 70
     1
102
RTVSPropertyOp27
 70
     1
102
RTVSPropertyOp28
 70
     1
102
RTVSPropertyOp29
 70
     1
102
RTVSPropertyOp30
 70
     1
102
RTVSPropertyOp31
 70
     1
102
RTVSPropertyOp32
 70
     1
  0
XRECORD
  5
14564
102
{ACAD_REACTORS
330
14563
102
}
330
14563
100
AcDbXrecord
280
     1
102
RTVSPropertyOp0
 70
     1
102
RTVSPropertyOp1
 70
     1
102
RTVSPropertyOp2
 70
     1
102
RTVSPropertyOp3
 70
     1
102
RTVSPropertyOp4
 70
     1
102
RTVSPropertyOp5
 70
     1
102
RTVSPropertyOp6
 70
     1
102
RTVSPropertyOp7
 70
     1
102
RTVSPropertyOp8
 70
     1
102
RTVSPropertyOp9
 70
     1
102
RTVSPropertyOp10
 70
     1
102
RTVSPropertyOp11
 70
     1
102
RTVSPropertyOp12
 70
     1
102
RTVSPropertyOp13
 70
     1
102
RTVSPropertyOp14
 70
     1
102
RTVSPropertyOp15
 70
     1
102
RTVSPropertyOp16
 70
     1
102
RTVSPropertyOp17
 70
     1
102
RTVSPropertyOp18
 70
     1
102
RTVSPropertyOp19
 70
     1
102
RTVSPropertyOp20
 70
     1
102
RTVSPropertyOp21
 70
     1
102
RTVSPropertyOp22
 70
     1
102
RTVSPropertyOp23
 70
     1
102
RTVSPropertyOp24
 70
     1
102
RTVSPropertyOp25
 70
     1
102
RTVSPropertyOp26
 70
     1
102
RTVSPropertyOp27
 70
     1
102
RTVSPropertyOp28
 70
     1
102
RTVSPropertyOp29
 70
     1
102
RTVSPropertyOp30
 70
     1
102
RTVSPropertyOp31
 70
     1
102
RTVSPropertyOp32
 70
     1
  0
XRECORD
  5
14566
102
{ACAD_REACTORS
330
14565
102
}
330
14565
100
AcDbXrecord
280
     1
102
RTVSPropertyOp0
 70
     1
102
RTVSPropertyOp1
 70
     1
102
RTVSPropertyOp2
 70
     1
102
RTVSPropertyOp3
 70
     1
102
RTVSPropertyOp4
 70
     1
102
RTVSPropertyOp5
 70
     1
102
RTVSPropertyOp6
 70
     1
102
RTVSPropertyOp7
 70
     1
102
RTVSPropertyOp8
 70
     1
102
RTVSPropertyOp9
 70
     1
102
RTVSPropertyOp10
 70
     1
102
RTVSPropertyOp11
 70
     1
102
RTVSPropertyOp12
 70
     1
102
RTVSPropertyOp13
 70
     1
102
RTVSPropertyOp14
 70
     1
102
RTVSPropertyOp15
 70
     1
102
RTVSPropertyOp16
 70
     1
102
RTVSPropertyOp17
 70
     1
102
RTVSPropertyOp18
 70
     1
102
RTVSPropertyOp19
 70
     1
102
RTVSPropertyOp20
 70
     1
102
RTVSPropertyOp21
 70
     1
102
RTVSPropertyOp22
 70
     1
102
RTVSPropertyOp23
 70
     1
102
RTVSPropertyOp24
 70
     1
102
RTVSPropertyOp25
 70
     1
102
RTVSPropertyOp26
 70
     1
102
RTVSPropertyOp27
 70
     1
102
RTVSPropertyOp28
 70
     1
102
RTVSPropertyOp29
 70
     1
102
RTVSPropertyOp30
 70
     1
102
RTVSPropertyOp31
 70
     1
102
RTVSPropertyOp32
 70
     1
  0
XRECORD
  5
1455C
102
{ACAD_REACTORS
330
1455B
102
}
330
1455B
100
AcDbXrecord
280
     1
102
RTVSPropertyOp0
 70
     1
102
RTVSPropertyOp1
 70
     1
102
RTVSPropertyOp2
 70
     1
102
RTVSPropertyOp3
 70
     1
102
RTVSPropertyOp4
 70
     1
102
RTVSPropertyOp5
 70
     1
102
RTVSPropertyOp6
 70
     1
102
RTVSPropertyOp7
 70
     1
102
RTVSPropertyOp8
 70
     1
102
RTVSPropertyOp9
 70
     1
102
RTVSPropertyOp10
 70
     1
102
RTVSPropertyOp11
 70
     1
102
RTVSPropertyOp12
 70
     1
102
RTVSPropertyOp13
 70
     1
102
RTVSPropertyOp14
 70
     1
102
RTVSPropertyOp15
 70
     1
102
RTVSPropertyOp16
 70
     1
102
RTVSPropertyOp17
 70
     1
102
RTVSPropertyOp18
 70
     1
102
RTVSPropertyOp19
 70
     1
102
RTVSPropertyOp20
 70
     1
102
RTVSPropertyOp21
 70
     1
102
RTVSPropertyOp22
 70
     1
102
RTVSPropertyOp23
 70
     1
102
RTVSPropertyOp24
 70
     1
102
RTVSPropertyOp25
 70
     1
102
RTVSPropertyOp26
 70
     1
102
RTVSPropertyOp27
 70
     1
102
RTVSPropertyOp28
 70
     1
102
RTVSPropertyOp29
 70
     1
102
RTVSPropertyOp30
 70
     1
102
RTVSPropertyOp31
 70
     1
102
RTVSPropertyOp32
 70
     1
  0
XRECORD
  5
14550
102
{ACAD_REACTORS
330
1454F
102
}
330
1454F
100
AcDbXrecord
280
     1
102
RTVSPropertyOp0
 70
     1
102
RTVSPropertyOp1
 70
     1
102
RTVSPropertyOp2
 70
     1
102
RTVSPropertyOp3
 70
     1
102
RTVSPropertyOp4
 70
     1
102
RTVSPropertyOp5
 70
     1
102
RTVSPropertyOp6
 70
     1
102
RTVSPropertyOp7
 70
     1
102
RTVSPropertyOp8
 70
     1
102
RTVSPropertyOp9
 70
     1
102
RTVSPropertyOp10
 70
     1
102
RTVSPropertyOp11
 70
     1
102
RTVSPropertyOp12
 70
     1
102
RTVSPropertyOp13
 70
     1
102
RTVSPropertyOp14
 70
     1
102
RTVSPropertyOp15
 70
     1
102
RTVSPropertyOp16
 70
     1
102
RTVSPropertyOp17
 70
     1
102
RTVSPropertyOp18
 70
     1
102
RTVSPropertyOp19
 70
     1
102
RTVSPropertyOp20
 70
     1
102
RTVSPropertyOp21
 70
     1
102
RTVSPropertyOp22
 70
     1
102
RTVSPropertyOp23
 70
     1
102
RTVSPropertyOp24
 70
     1
102
RTVSPropertyOp25
 70
     1
102
RTVSPropertyOp26
 70
     1
102
RTVSPropertyOp27
 70
     1
102
RTVSPropertyOp28
 70
     1
102
RTVSPropertyOp29
 70
     1
102
RTVSPropertyOp30
 70
     1
102
RTVSPropertyOp31
 70
     1
102
RTVSPropertyOp32
 70
     1
  0
XRECORD
  5
14568
102
{ACAD_REACTORS
330
14567
102
}
330
14567
100
AcDbXrecord
280
     1
102
RTVSPropertyOp0
 70
     1
102
RTVSPropertyOp1
 70
     1
102
RTVSPropertyOp2
 70
     1
102
RTVSPropertyOp3
 70
     1
102
RTVSPropertyOp4
 70
     1
102
RTVSPropertyOp5
 70
     1
102
RTVSPropertyOp6
 70
     1
102
RTVSPropertyOp7
 70
     1
102
RTVSPropertyOp8
 70
     1
102
RTVSPropertyOp9
 70
     1
102
RTVSPropertyOp10
 70
     1
102
RTVSPropertyOp11
 70
     1
102
RTVSPropertyOp12
 70
     1
102
RTVSPropertyOp13
 70
     1
102
RTVSPropertyOp14
 70
     1
102
RTVSPropertyOp15
 70
     1
102
RTVSPropertyOp16
 70
     1
102
RTVSPropertyOp17
 70
     1
102
RTVSPropertyOp18
 70
     1
102
RTVSPropertyOp19
 70
     1
102
RTVSPropertyOp20
 70
     1
102
RTVSPropertyOp21
 70
     1
102
RTVSPropertyOp22
 70
     1
102
RTVSPropertyOp23
 70
     1
102
RTVSPropertyOp24
 70
     1
102
RTVSPropertyOp25
 70
     1
102
RTVSPropertyOp26
 70
     1
102
RTVSPropertyOp27
 70
     1
102
RTVSPropertyOp28
 70
     1
102
RTVSPropertyOp29
 70
     1
102
RTVSPropertyOp30
 70
     1
102
RTVSPropertyOp31
 70
     1
102
RTVSPropertyOp32
 70
     1
  0
ENDSEC
  0
EOF
