   0
SECTION
   2
HEADER
   9
$ACADVER
   1
AC1015
   9
$DWGCODEPAGE
   3
ANSI_932
   9
$LIMMIN
  10
0.0
  20
0.0
   9
$LIMMAX
  10
 420.00000000000
  20
 297.00000000000
   9
$EXTMIN
  10
0.0
  20
0.0
  30
0.0
   9
$EXTMAX
  10
 420.00000000000
  20
 297.00000000000
  30
0.0
   9
$LTSCALE
  40
 8.4000000000000
   9
$HANDSEED
   5
4DB
   0
ENDSEC
   0
SECTION
   2
TABLES
  0
TABLE
  2
VPORT
  5
8
100
AcDbSymbolTable
 70
     1
  0
VPORT
  5
4DA
100
AcDbSymbolTableRecord
100
AcDbViewportTableRecord
  2
*ACTIVE
 70
     0
 10
0.0
 20
0.0
 11
1.0
 21
1.0
  12
 210.00000000000
  22
 148.50000000000
 13
0.0
 23
0.0
 14
1.0
 24
1.0
 15
0.0
 25
0.0
 16
0.0
 26
0.0
 36
1.0
 17
0.0
 27
0.0
 37
0.0
  40
 420.00000000000
  41
 1.4787878787879
 42
50.0
 43
0.0
 44
0.0
 50
0.0
 51
0.0
 71
     0
 72
   100
 73
     1
 74
     1
 75
     0
 76
     0
 77
     0
 78
     0
  0
ENDTAB
  0
TABLE
  2
LTYPE
  5
5
100
AcDbSymbolTable
 70
    25
  0
LTYPE
  5
12
100
AcDbSymbolTableRecord
100
AcDbLinetypeTableRecord
  2
BYBLOCK
 70
     0
  3

 72
    65
 73
     0
 40
0.0
  0
LTYPE
  5
13
100
AcDbSymbolTableRecord
100
AcDbLinetypeTableRecord
  2
BYLAYER
 70
     0
  3

 72
    65
 73
     0
 40
0.0
  0
LTYPE
  5
14
100
AcDbSymbolTableRecord
100
AcDbLinetypeTableRecord
  2
CONTINUOUS
 70
     0
  3
Solid line
 72
    65
 73
     0
 40
0.0
  0
LTYPE
  5
20
100
AcDbSymbolTableRecord
100
AcDbLinetypeTableRecord
  2
BORDER
 70
     0
  3
__ __ . __ __ . __ __ . __ __ . __ __ . __ __ .
 72
    65
 73
     6
 40
1.75
 49
0.5
 74
     0
 49
-0.25
 74
     0
 49
0.5
 74
     0
 49
-0.25
 74
     0
 49
0.0
 74
     0
 49
-0.25
 74
     0
  0
LTYPE
  5
21
100
AcDbSymbolTableRecord
100
AcDbLinetypeTableRecord
  2
BORDER2
 70
     0
  3
__.__.__.__.__.__.__.__.__.__.__.__.__.__.__.__
 72
    65
 73
     6
 40
0.875
 49
0.25
 74
     0
 49
-0.125
 74
     0
 49
0.25
 74
     0
 49
-0.125
 74
     0
 49
0.0
 74
     0
 49
-0.125
 74
     0
  0
LTYPE
  5
22
100
AcDbSymbolTableRecord
100
AcDbLinetypeTableRecord
  2
BORDERX2
 70
     0
  3
____  ____  .  ____  ____  .  ____  ____  .  __
 72
    65
 73
     6
 40
3.5
 49
1.0
 74
     0
 49
-0.5
 74
     0
 49
1.0
 74
     0
 49
-0.5
 74
     0
 49
0.0
 74
     0
 49
-0.5
 74
     0
  0
LTYPE
  5
23
100
AcDbSymbolTableRecord
100
AcDbLinetypeTableRecord
  2
CENTER
 70
     0
  3
____ _ ____ _ ____ _ ____ _ ____ _ ____ _ ____ 
 72
    65
 73
     4
 40
2.0
 49
1.25
 74
     0
 49
-0.25
 74
     0
 49
0.25
 74
     0
 49
-0.25
 74
     0
  0
LTYPE
  5
24
100
AcDbSymbolTableRecord
100
AcDbLinetypeTableRecord
  2
CENTER2
 70
     0
  3
___ _ ___ _ ___ _ ___ _ ___ _ ___ _ ___ _ ___ _
 72
    65
 73
     4
 40
1.125
 49
0.75
 74
     0
 49
-0.125
 74
     0
 49
0.125
 74
     0
 49
-0.125
 74
     0
  0
LTYPE
  5
25
100
AcDbSymbolTableRecord
100
AcDbLinetypeTableRecord
  2
CENTERX2
 70
     0
  3
________  __  ________  __  ________  __  _____
 72
    65
 73
     4
 40
4.0
 49
2.5
 74
     0
 49
-0.5
 74
     0
 49
0.5
 74
     0
 49
-0.5
 74
     0
  0
LTYPE
  5
26
100
AcDbSymbolTableRecord
100
AcDbLinetypeTableRecord
  2
DASHDOT
 70
     0
  3
__ . __ . __ . __ . __ . __ . __ . __ . __ . __
 72
    65
 73
     4
 40
1.0
 49
0.5
 74
     0
 49
-0.25
 74
     0
 49
0.0
 74
     0
 49
-0.25
 74
     0
  0
LTYPE
  5
27
100
AcDbSymbolTableRecord
100
AcDbLinetypeTableRecord
  2
DASHDOT2
 70
     0
  3
_._._._._._._._._._._._._._._._._._._._._._._._
 72
    65
 73
     4
 40
0.5
 49
0.25
 74
     0
 49
-0.125
 74
     0
 49
0.0
 74
     0
 49
-0.125
 74
     0
  0
LTYPE
  5
28
100
AcDbSymbolTableRecord
100
AcDbLinetypeTableRecord
  2
DASHDOTX2
 70
     0
  3
____  .  ____  .  ____  .  ____  .  ____  .  __
 72
    65
 73
     4
 40
2.0
 49
1.0
 74
     0
 49
-0.5
 74
     0
 49
0.0
 74
     0
 49
-0.5
 74
     0
  0
LTYPE
  5
29
100
AcDbSymbolTableRecord
100
AcDbLinetypeTableRecord
  2
DASHED
 70
     0
  3
__ __ __ __ __ __ __ __ __ __ __ __ __ __ __ __
 72
    65
 73
     2
 40
0.75
 49
0.5
 74
     0
 49
-0.25
 74
     0
  0
LTYPE
  5
2A
100
AcDbSymbolTableRecord
100
AcDbLinetypeTableRecord
  2
DASHED2
 70
     0
  3
_ _ _ _ _ _ _ _ _ _ _ _ _ _ _ _ _ _ _ _ _ _ _ _
 72
    65
 73
     2
 40
0.375
 49
0.25
 74
     0
 49
-0.125
 74
     0
  0
LTYPE
  5
2B
100
AcDbSymbolTableRecord
100
AcDbLinetypeTableRecord
  2
DASHEDX2
 70
     0
  3
____  ____  ____  ____  ____  ____  ____  ____ 
 72
    65
 73
     2
 40
1.5
 49
1.0
 74
     0
 49
-0.5
 74
     0
  0
LTYPE
  5
2C
100
AcDbSymbolTableRecord
100
AcDbLinetypeTableRecord
  2
DIVIDE
 70
     0
  3
____ . . ____ . . ____ . . ____ . . ____ . . __
 72
    65
 73
     6
 40
1.25
 49
0.5
 74
     0
 49
-0.25
 74
     0
 49
0.0
 74
     0
 49
-0.25
 74
     0
 49
0.0
 74
     0
 49
-0.25
 74
     0
  0
LTYPE
  5
2D
100
AcDbSymbolTableRecord
100
AcDbLinetypeTableRecord
  2
DIVIDE2
 70
     0
  3
__..__..__..__..__..__..__..__..__..__..__..__.
 72
    65
 73
     6
 40
0.625
 49
0.25
 74
     0
 49
-0.125
 74
     0
 49
0.0
 74
     0
 49
-0.125
 74
     0
 49
0.0
 74
     0
 49
-0.125
 74
     0
  0
LTYPE
  5
2E
100
AcDbSymbolTableRecord
100
AcDbLinetypeTableRecord
  2
DIVIDEX2
 70
     0
  3
________  .  .  ________  .  .  ________  .  . 
 72
    65
 73
     6
 40
2.5
 49
1.0
 74
     0
 49
-0.5
 74
     0
 49
0.0
 74
     0
 49
-0.5
 74
     0
 49
0.0
 74
     0
 49
-0.5
 74
     0
  0
LTYPE
  5
2F
100
AcDbSymbolTableRecord
100
AcDbLinetypeTableRecord
  2
DOT
 70
     0
  3
. . . . . . . . . . . . . . . . . . . . . . . .
 72
    65
 73
     2
 40
0.25
 49
0.0
 74
     0
 49
-0.25
 74
     0
  0
LTYPE
  5
30
100
AcDbSymbolTableRecord
100
AcDbLinetypeTableRecord
  2
DOT2
 70
     0
  3
...............................................
 72
    65
 73
     2
 40
0.125
 49
0.0
 74
     0
 49
-0.125
 74
     0
  0
LTYPE
  5
31
100
AcDbSymbolTableRecord
100
AcDbLinetypeTableRecord
  2
DOTX2
 70
     0
  3
.  .  .  .  .  .  .  .  .  .  .  .  .  .  .  . 
 72
    65
 73
     2
 40
0.5
 49
0.0
 74
     0
 49
-0.5
 74
     0
  0
LTYPE
  5
32
100
AcDbSymbolTableRecord
100
AcDbLinetypeTableRecord
  2
HIDDEN
 70
     0
  3
__ __ __ __ __ __ __ __ __ __ __ __ __ __ __ __
 72
    65
 73
     2
 40
0.375
 49
0.25
 74
     0
 49
-0.125
 74
     0
  0
LTYPE
  5
33
100
AcDbSymbolTableRecord
100
AcDbLinetypeTableRecord
  2
HIDDEN2
 70
     0
  3
_ _ _ _ _ _ _ _ _ _ _ _ _ _ _ _ _ _ _ _ _ _ _ _
 72
    65
 73
     2
 40
0.1875
 49
0.125
 74
     0
 49
-0.0625
 74
     0
  0
LTYPE
  5
34
100
AcDbSymbolTableRecord
100
AcDbLinetypeTableRecord
  2
HIDDENX2
 70
     0
  3
____ ____ ____ ____ ____ ____ ____ ____ ____ __
 72
    65
 73
     2
 40
0.75
 49
0.5
 74
     0
 49
-0.25
 74
     0
  0
LTYPE
  5
35
100
AcDbSymbolTableRecord
100
AcDbLinetypeTableRecord
  2
PHANTOM
 70
     0
  3
______  __  __  ______  __  __  ______  __  __ 
 72
    65
 73
     6
 40
2.5
 49
1.25
 74
     0
 49
-0.25
 74
     0
 49
0.25
 74
     0
 49
-0.25
 74
     0
 49
0.25
 74
     0
 49
-0.25
 74
     0
  0
LTYPE
  5
36
100
AcDbSymbolTableRecord
100
AcDbLinetypeTableRecord
  2
PHANTOM2
 70
     0
  3
___ _ _ ___ _ _ ___ _ _ ___ _ _ ___ _ _ ___ _ _
 72
    65
 73
     6
 40
1.25
 49
0.625
 74
     0
 49
-0.125
 74
     0
 49
0.125
 74
     0
 49
-0.125
 74
     0
 49
0.125
 74
     0
 49
-0.125
 74
     0
  0
LTYPE
  5
37
100
AcDbSymbolTableRecord
100
AcDbLinetypeTableRecord
  2
PHANTOMX2
 70
     0
  3
____________    ____    ____    ____________   
 72
    65
 73
     6
 40
5.0
 49
2.5
 74
     0
 49
-0.5
 74
     0
 49
0.5
 74
     0
 49
-0.5
 74
     0
 49
0.5
 74
     0
 49
-0.5
 74
     0
  0
ENDTAB
   0
TABLE
   2
LAYER
   5
2
 100
AcDbSymbolTable
  70
5
   0
LAYER
   5
E
 100
AcDbSymbolTableRecord
 100
AcDbLayerTableRecord
   2
0
  70
0
  62
7
   6
CONTINUOUS
 390
30
   0
LAYER
   5
39
 100
AcDbSymbolTableRecord
 100
AcDbLayerTableRecord
   2
LEVEL001
  70
0
  62
7
   6
CONTINUOUS
 390
30
   0
LAYER
   5
3A
 100
AcDbSymbolTableRecord
 100
AcDbLayerTableRecord
   2
LEVEL002
  70
0
  62
7
   6
CONTINUOUS
 390
30
   0
LAYER
   5
3B
 100
AcDbSymbolTableRecord
 100
AcDbLayerTableRecord
   2
LEVEL011
  70
0
  62
7
   6
CONTINUOUS
 390
30
   0
LAYER
   5
3C
 100
AcDbSymbolTableRecord
 100
AcDbLayerTableRecord
   2
LEVEL019
  70
0
  62
7
   6
CONTINUOUS
 390
30
   0
ENDTAB
  0
TABLE
  2
STYLE
  5
3
100
AcDbSymbolTable
  70
5
  0
STYLE
  5
F
100
AcDbSymbolTableRecord
100
AcDbTextStyleTableRecord
  2
STANDARD
 70
     0
 40
0.0
 41
1.0
 50
0.0
 71
     0
 42
0.2
  3
TXT
  4
BIGFONT
  0
STYLE
  5
38
100
AcDbSymbolTableRecord
100
AcDbTextStyleTableRecord
  2
STANDARD1
 70
     4
 40
0.0
 41
1.0
 50
0.0
 71
     0
 42
0.2
  3
TXT
  4
BIGFONT
   0
STYLE
   5
3D
 100
AcDbSymbolTableRecord
 100
AcDbTextStyleTableRecord
   2
GMM001
  70
0
  40
0.0
  41
 1.0000000000000
  50
0.0
  71
     0
  42
1.0
   3
txt.shx
   4
bigfont.shx
   0
STYLE
   5
3E
 100
AcDbSymbolTableRecord
 100
AcDbTextStyleTableRecord
   2
GMM002
  70
0
  40
0.0
  41
 0.80000000000000
  50
0.0
  71
     0
  42
1.0
   3
txt.shx
   4
bigfont.shx
   0
STYLE
   5
3F
 100
AcDbSymbolTableRecord
 100
AcDbTextStyleTableRecord
   2
GMM003
  70
0
  40
0.0
  41
 1.1428571428571
  50
0.0
  71
     0
  42
1.0
   3
txt.shx
   4
bigfont.shx
   0
ENDTAB
  0
TABLE
  2
VIEW
  5
6
100
AcDbSymbolTable
 70
     0
  0
ENDTAB
  0
TABLE
  2
UCS
  5
7
100
AcDbSymbolTable
 70
     0
  0
ENDTAB
  0
TABLE
  2
APPID
  5
9
100
AcDbSymbolTable
 70
     1
  0
APPID
  5
10
100
AcDbSymbolTableRecord
100
AcDbRegAppTableRecord
  2
ACAD
 70
     0
  0
ENDTAB
   0
TABLE
   2
DIMSTYLE
   5
A
 100
AcDbSymbolTable
  70
3
 100
AcDbDimStyleTable
  0
DIMSTYLE
105
1D
100
AcDbSymbolTableRecord
100
AcDbDimStyleTableRecord
  2
STANDARD
 70
     0
  3

  4

  5

  6

  7

 40
1.0
 41
0.18
 42
0.0625
 43
0.38
 44
0.18
 45
0.0
 46
0.0
 47
0.0
 48
0.0
140
0.18
141
0.09
142
0.0
143
25.4
144
1.0
145
0.0
146
1.0
147
0.09
 71
     0
 72
     0
 73
     1
 74
     1
 75
     0
 76
     0
 77
     0
 78
     0
170
     0
171
     2
172
     0
173
     0
174
     0
175
     0
176
     0
177
     0
178
     0
270
     2
271
     4
272
     4
273
     2
274
     2
340
F
275
     0
280
     0
281
     0
282
     0
283
     1
284
     0
285
     0
286
     0
287
     3
288
     0
   0
DIMSTYLE
 105
40
 100
AcDbSymbolTableRecord
 100
AcDbDimStyleTableRecord
   2
GMM001
  70
0
   3

   4

   5

   6

   7

  40
 1.0000000000000
  41
 1.5000000000000
  42
 1.0000000000000
  43
 8.0000000000000
  44
 1.0000000000000
  45
0.0
  46
0.0
  47
0.0
  48
0.0
 140
 3.0000000000000
 141
 1.0000000000000
 142
0.0
 143
 0.39400000000000E-1
 144
 1.0000000000000
 145
0.0
 146
 0.83333333333333
 147
0.0
  71
0
  72
0
  73
0
  74
0
  75
0
  76
0
  77
1
  78
8
 170
0
 171
2
 172
1
 173
1
 174
0
 175
0
 176
8
 177
8
 178
8
 270
2
 271
6
 272
0
 273
2
 274
2
 340
3D
 275
1
 280
0
 281
0
 282
0
 283
1
 284
0
 285
0
 286
0
 287
3
 288
1
   0
ENDTAB
  0
TABLE
  2
BLOCK_RECORD
  5
1
100
AcDbSymbolTable
 70
     0
  0
BLOCK_RECORD
  5
18
100
AcDbSymbolTableRecord
100
AcDbBlockTableRecord
  2
*MODEL_SPACE
  0
BLOCK_RECORD
  5
15
100
AcDbSymbolTableRecord
100
AcDbBlockTableRecord
  2
*PAPER_SPACE
   0
BLOCK_RECORD
   5
41
 100
AcDbSymbolTableRecord
 100
AcDbBlockTableRecord
   2
_ARCHTICK
   0
BLOCK_RECORD
   5
42
 100
AcDbSymbolTableRecord
 100
AcDbBlockTableRecord
   2
_BOXBLANK
   0
BLOCK_RECORD
   5
43
 100
AcDbSymbolTableRecord
 100
AcDbBlockTableRecord
   2
_BOXFILLED
   0
BLOCK_RECORD
   5
44
 100
AcDbSymbolTableRecord
 100
AcDbBlockTableRecord
   2
_CLOSED
   0
BLOCK_RECORD
   5
45
 100
AcDbSymbolTableRecord
 100
AcDbBlockTableRecord
   2
_CLOSEDBLANK
   0
BLOCK_RECORD
   5
46
 100
AcDbSymbolTableRecord
 100
AcDbBlockTableRecord
   2
_DATUMBLANK
   0
BLOCK_RECORD
   5
47
 100
AcDbSymbolTableRecord
 100
AcDbBlockTableRecord
   2
_DATUMFILLED
   0
BLOCK_RECORD
   5
48
 100
AcDbSymbolTableRecord
 100
AcDbBlockTableRecord
   2
_DOT
   0
BLOCK_RECORD
   5
49
 100
AcDbSymbolTableRecord
 100
AcDbBlockTableRecord
   2
_DOTBLANK
   0
BLOCK_RECORD
   5
4A
 100
AcDbSymbolTableRecord
 100
AcDbBlockTableRecord
   2
_DOTSMALL
   0
BLOCK_RECORD
   5
4B
 100
AcDbSymbolTableRecord
 100
AcDbBlockTableRecord
   2
_INTEGRAL
   0
BLOCK_RECORD
   5
4C
 100
AcDbSymbolTableRecord
 100
AcDbBlockTableRecord
   2
_NONE
   0
BLOCK_RECORD
   5
4D
 100
AcDbSymbolTableRecord
 100
AcDbBlockTableRecord
   2
_OBLIQUE
   0
BLOCK_RECORD
   5
4E
 100
AcDbSymbolTableRecord
 100
AcDbBlockTableRecord
   2
_OPEN
   0
BLOCK_RECORD
   5
4F
 100
AcDbSymbolTableRecord
 100
AcDbBlockTableRecord
   2
_OPEN30
   0
BLOCK_RECORD
   5
50
 100
AcDbSymbolTableRecord
 100
AcDbBlockTableRecord
   2
_OPEN90
   0
BLOCK_RECORD
   5
51
 100
AcDbSymbolTableRecord
 100
AcDbBlockTableRecord
   2
_ORIGIN
   0
ENDTAB
   0
ENDSEC
  0
SECTION
  2
BLOCKS
  0
BLOCK
  5
19
100
AcDbEntity
  8
0
100
AcDbBlockBegin
  2
*MODEL_SPACE
 70
     0
 10
0.0
 20
0.0
 30
0.0
  3
*MODEL_SPACE
  1

  0
ENDBLK
  5
1A
100
AcDbEntity
  8
0
100
AcDbBlockEnd
  0
BLOCK
  5
16
100
AcDbEntity
 67
     1
  8
0
100
AcDbBlockBegin
  2
*PAPER_SPACE
 70
     0
 10
0.0
 20
0.0
 30
0.0
  3
*PAPER_SPACE
  1

  0
ENDBLK
  5
17
100
AcDbEntity
 67
     1
  8
0
100
AcDbBlockEnd
   0
BLOCK
   5
52
 100
AcDbEntity
   8
0
 100
AcDbBlockBegin
   2
_ARCHTICK
  70
0
  10
0.0
  20
0.0
  30
0.0
   3
_ARCHTICK
   0
POLYLINE
   5
53
 100
AcDbEntity
   8
0
 370
-2
   6
BYBLOCK
  62
0
 100
AcDb2dPolyline
  66
1
  10
0.0
  20
0.0
  30
0.0
  70
1
  40
 0.15000000000000
  41
 0.15000000000000
   0
VERTEX
   5
54
 100
AcDbEntity
   8
0
   6
BYBLOCK
  62
0
 100
AcDbVertex
 100
AcDb2dVertex
  10
-0.50000000000000
  20
-0.50000000000000
  30
0.0
  40
 0.15000000000000
  41
 0.15000000000000
   0
VERTEX
   5
55
 100
AcDbEntity
   8
0
   6
BYBLOCK
  62
0
 100
AcDbVertex
 100
AcDb2dVertex
  10
 0.50000000000000
  20
 0.50000000000000
  30
0.0
  40
 0.15000000000000
  41
 0.15000000000000
   0
SEQEND
   5
56
 100
AcDbEntity
   8
0
   6
BYBLOCK
  62
0
   0
ENDBLK
   5
57
 100
AcDbEntity
   8
0
 100
AcDbBlockEnd
   0
BLOCK
   5
58
 100
AcDbEntity
   8
0
 100
AcDbBlockBegin
   2
_OBLIQUE
  70
0
  10
0.0
  20
0.0
  30
0.0
   3
_OBLIQUE
   0
LINE
   5
59
 100
AcDbEntity
   8
0
 370
-2
 100
AcDbLine
   6
BYBLOCK
  62
0
  10
-0.50000000000000
  20
-0.50000000000000
  30
0.0
  11
 0.50000000000000
  21
 0.50000000000000
  31
0.0
   0
ENDBLK
   5
5A
 100
AcDbEntity
   8
0
 100
AcDbBlockEnd
   0
BLOCK
   5
5B
 100
AcDbEntity
   8
0
 100
AcDbBlockBegin
   2
_BOXBLANK
  70
0
  10
0.0
  20
0.0
  30
0.0
   3
_BOXBLANK
   0
LINE
   5
5C
 100
AcDbEntity
   8
0
 370
-2
 100
AcDbLine
   6
BYBLOCK
  62
0
  10
-0.50000000000000
  20
-0.50000000000000
  30
0.0
  11
 0.50000000000000
  21
-0.50000000000000
  31
0.0
   0
LINE
   5
5D
 100
AcDbEntity
   8
0
 370
-2
 100
AcDbLine
   6
BYBLOCK
  62
0
  10
 0.50000000000000
  20
-0.50000000000000
  30
0.0
  11
 0.50000000000000
  21
 0.50000000000000
  31
0.0
   0
LINE
   5
5E
 100
AcDbEntity
   8
0
 370
-2
 100
AcDbLine
   6
BYBLOCK
  62
0
  10
 0.50000000000000
  20
 0.50000000000000
  30
0.0
  11
-0.50000000000000
  21
 0.50000000000000
  31
0.0
   0
LINE
   5
5F
 100
AcDbEntity
   8
0
 370
-2
 100
AcDbLine
   6
BYBLOCK
  62
0
  10
-0.50000000000000
  20
 0.50000000000000
  30
0.0
  11
-0.50000000000000
  21
-0.50000000000000
  31
0.0
   0
LINE
   5
60
 100
AcDbEntity
   8
0
 370
-2
 100
AcDbLine
   6
BYBLOCK
  62
0
  10
-0.50000000000000
  20
0.0
  30
0.0
  11
-1.0000000000000
  21
0.0
  31
0.0
   0
ENDBLK
   5
61
 100
AcDbEntity
   8
0
 100
AcDbBlockEnd
   0
BLOCK
   5
62
 100
AcDbEntity
   8
0
 100
AcDbBlockBegin
   2
_BOXFILLED
  70
0
  10
0.0
  20
0.0
  30
0.0
   3
_BOXFILLED
   0
SOLID
   5
63
 100
AcDbEntity
   8
0
 100
AcDbTrace
   6
BYBLOCK
  62
0
  10
-0.50000000000000
  20
 0.50000000000000
  30
0.0
  11
 0.50000000000000
  21
 0.50000000000000
  31
0.0
  12
-0.50000000000000
  22
-0.50000000000000
  32
0.0
  13
 0.50000000000000
  23
-0.50000000000000
  33
0.0
   0
LINE
   5
64
 100
AcDbEntity
   8
0
 370
-2
 100
AcDbLine
   6
BYBLOCK
  62
0
  10
-0.50000000000000
  20
0.0
  30
0.0
  11
-1.0000000000000
  21
0.0
  31
0.0
   0
ENDBLK
   5
65
 100
AcDbEntity
   8
0
 100
AcDbBlockEnd
   0
BLOCK
   5
66
 100
AcDbEntity
   8
0
 100
AcDbBlockBegin
   2
_CLOSED
  70
0
  10
0.0
  20
0.0
  30
0.0
   3
_CLOSED
   0
LINE
   5
67
 100
AcDbEntity
   8
0
 370
-2
 100
AcDbLine
   6
BYBLOCK
  62
0
  10
-1.0000000000000
  20
 0.16666666666667
  30
0.0
  11
0.0
  21
0.0
  31
0.0
   0
LINE
   5
68
 100
AcDbEntity
   8
0
 370
-2
 100
AcDbLine
   6
BYBLOCK
  62
0
  10
0.0
  20
0.0
  30
0.0
  11
-1.0000000000000
  21
-0.16666666666667
  31
0.0
   0
LINE
   5
69
 100
AcDbEntity
   8
0
 370
-2
 100
AcDbLine
   6
BYBLOCK
  62
0
  10
-1.0000000000000
  20
 0.16666666666667
  30
0.0
  11
-1.0000000000000
  21
-0.16666666666667
  31
0.0
   0
LINE
   5
6A
 100
AcDbEntity
   8
0
 370
-2
 100
AcDbLine
   6
BYBLOCK
  62
0
  10
0.0
  20
0.0
  30
0.0
  11
-1.0000000000000
  21
0.0
  31
0.0
   0
ENDBLK
   5
6B
 100
AcDbEntity
   8
0
 100
AcDbBlockEnd
   0
BLOCK
   5
6C
 100
AcDbEntity
   8
0
 100
AcDbBlockBegin
   2
_OPEN
  70
0
  10
0.0
  20
0.0
  30
0.0
   3
_OPEN
   0
LINE
   5
6D
 100
AcDbEntity
   8
0
 370
-2
 100
AcDbLine
   6
BYBLOCK
  62
0
  10
-1.0000000000000
  20
 0.16666666666667
  30
0.0
  11
0.0
  21
0.0
  31
0.0
   0
LINE
   5
6E
 100
AcDbEntity
   8
0
 370
-2
 100
AcDbLine
   6
BYBLOCK
  62
0
  10
0.0
  20
0.0
  30
0.0
  11
-1.0000000000000
  21
-0.16666666666667
  31
0.0
   0
LINE
   5
6F
 100
AcDbEntity
   8
0
 370
-2
 100
AcDbLine
   6
BYBLOCK
  62
0
  10
0.0
  20
0.0
  30
0.0
  11
-1.0000000000000
  21
0.0
  31
0.0
   0
ENDBLK
   5
70
 100
AcDbEntity
   8
0
 100
AcDbBlockEnd
   0
BLOCK
   5
71
 100
AcDbEntity
   8
0
 100
AcDbBlockBegin
   2
_OPEN30
  70
0
  10
0.0
  20
0.0
  30
0.0
   3
_OPEN30
   0
LINE
   5
72
 100
AcDbEntity
   8
0
 370
-2
 100
AcDbLine
   6
BYBLOCK
  62
0
  10
-1.0000000000000
  20
 0.26794919243110
  30
0.0
  11
0.0
  21
0.0
  31
0.0
   0
LINE
   5
73
 100
AcDbEntity
   8
0
 370
-2
 100
AcDbLine
   6
BYBLOCK
  62
0
  10
0.0
  20
0.0
  30
0.0
  11
-1.0000000000000
  21
-0.26794919243110
  31
0.0
   0
LINE
   5
74
 100
AcDbEntity
   8
0
 370
-2
 100
AcDbLine
   6
BYBLOCK
  62
0
  10
0.0
  20
0.0
  30
0.0
  11
-1.0000000000000
  21
0.0
  31
0.0
   0
ENDBLK
   5
75
 100
AcDbEntity
   8
0
 100
AcDbBlockEnd
   0
BLOCK
   5
76
 100
AcDbEntity
   8
0
 100
AcDbBlockBegin
   2
_OPEN90
  70
0
  10
0.0
  20
0.0
  30
0.0
   3
_OPEN90
   0
LINE
   5
77
 100
AcDbEntity
   8
0
 370
-2
 100
AcDbLine
   6
BYBLOCK
  62
0
  10
-0.50000000000000
  20
 0.50000000000000
  30
0.0
  11
0.0
  21
0.0
  31
0.0
   0
LINE
   5
78
 100
AcDbEntity
   8
0
 370
-2
 100
AcDbLine
   6
BYBLOCK
  62
0
  10
0.0
  20
0.0
  30
0.0
  11
-0.50000000000000
  21
-0.50000000000000
  31
0.0
   0
LINE
   5
79
 100
AcDbEntity
   8
0
 370
-2
 100
AcDbLine
   6
BYBLOCK
  62
0
  10
0.0
  20
0.0
  30
0.0
  11
-1.0000000000000
  21
0.0
  31
0.0
   0
ENDBLK
   5
7A
 100
AcDbEntity
   8
0
 100
AcDbBlockEnd
   0
BLOCK
   5
7B
 100
AcDbEntity
   8
0
 100
AcDbBlockBegin
   2
_CLOSEDBLANK
  70
0
  10
0.0
  20
0.0
  30
0.0
   3
_CLOSEDBLANK
   0
LINE
   5
7C
 100
AcDbEntity
   8
0
 370
-2
 100
AcDbLine
   6
BYBLOCK
  62
0
  10
-1.0000000000000
  20
 0.16666666666667
  30
0.0
  11
0.0
  21
0.0
  31
0.0
   0
LINE
   5
7D
 100
AcDbEntity
   8
0
 370
-2
 100
AcDbLine
   6
BYBLOCK
  62
0
  10
0.0
  20
0.0
  30
0.0
  11
-1.0000000000000
  21
-0.16666666666667
  31
0.0
   0
LINE
   5
7E
 100
AcDbEntity
   8
0
 370
-2
 100
AcDbLine
   6
BYBLOCK
  62
0
  10
-1.0000000000000
  20
 0.16666666666667
  30
0.0
  11
-1.0000000000000
  21
-0.16666666666667
  31
0.0
   0
ENDBLK
   5
7F
 100
AcDbEntity
   8
0
 100
AcDbBlockEnd
   0
BLOCK
   5
80
 100
AcDbEntity
   8
0
 100
AcDbBlockBegin
   2
_DOT
  70
0
  10
0.0
  20
0.0
  30
0.0
   3
_DOT
   0
POLYLINE
   5
81
 100
AcDbEntity
   8
0
 370
-2
   6
BYBLOCK
  62
0
 100
AcDb2dPolyline
  66
1
  10
0.0
  20
0.0
  30
0.0
  70
1
  40
 0.50000000000000
  41
 0.50000000000000
   0
VERTEX
   5
82
 100
AcDbEntity
   8
0
   6
BYBLOCK
  62
0
 100
AcDbVertex
 100
AcDb2dVertex
  10
-0.25000000000000
  20
0.0
  30
0.0
  42
 1.0000000000000
  40
 0.50000000000000
  41
 0.50000000000000
   0
VERTEX
   5
83
 100
AcDbEntity
   8
0
   6
BYBLOCK
  62
0
 100
AcDbVertex
 100
AcDb2dVertex
  10
 0.25000000000000
  20
0.0
  30
0.0
  42
 1.0000000000000
  40
 0.50000000000000
  41
 0.50000000000000
   0
SEQEND
   5
84
 100
AcDbEntity
   8
0
   6
BYBLOCK
  62
0
   0
LINE
   5
85
 100
AcDbEntity
   8
0
 370
-2
 100
AcDbLine
   6
BYBLOCK
  62
0
  10
-0.50000000000000
  20
0.0
  30
0.0
  11
-1.0000000000000
  21
0.0
  31
0.0
   0
ENDBLK
   5
86
 100
AcDbEntity
   8
0
 100
AcDbBlockEnd
   0
BLOCK
   5
87
 100
AcDbEntity
   8
0
 100
AcDbBlockBegin
   2
_DOTSMALL
  70
0
  10
0.0
  20
0.0
  30
0.0
   3
_DOTSMALL
   0
POLYLINE
   5
88
 100
AcDbEntity
   8
0
 370
-2
   6
BYBLOCK
  62
0
 100
AcDb2dPolyline
  66
1
  10
0.0
  20
0.0
  30
0.0
  70
1
  40
 0.50000000000000
  41
 0.50000000000000
   0
VERTEX
   5
89
 100
AcDbEntity
   8
0
   6
BYBLOCK
  62
0
 100
AcDbVertex
 100
AcDb2dVertex
  10
-0.62500000000000E-1
  20
0.0
  30
0.0
  42
 1.0000000000000
  40
 0.50000000000000
  41
 0.50000000000000
   0
VERTEX
   5
8A
 100
AcDbEntity
   8
0
   6
BYBLOCK
  62
0
 100
AcDbVertex
 100
AcDb2dVertex
  10
 0.62500000000000E-1
  20
0.0
  30
0.0
  42
 1.0000000000000
  40
 0.50000000000000
  41
 0.50000000000000
   0
SEQEND
   5
8B
 100
AcDbEntity
   8
0
   6
BYBLOCK
  62
0
   0
ENDBLK
   5
8C
 100
AcDbEntity
   8
0
 100
AcDbBlockEnd
   0
BLOCK
   5
8D
 100
AcDbEntity
   8
0
 100
AcDbBlockBegin
   2
_DATUMBLANK
  70
0
  10
0.0
  20
0.0
  30
0.0
   3
_DATUMBLANK
   0
LINE
   5
8E
 100
AcDbEntity
   8
0
 370
-2
 100
AcDbLine
   6
BYBLOCK
  62
0
  10
0.0
  20
 0.57735027000000
  30
0.0
  11
-1.0000000000000
  21
0.0
  31
0.0
   0
LINE
   5
8F
 100
AcDbEntity
   8
0
 370
-2
 100
AcDbLine
   6
BYBLOCK
  62
0
  10
-1.0000000000000
  20
0.0
  30
0.0
  11
0.0
  21
-0.57735027000000
  31
0.0
   0
LINE
   5
90
 100
AcDbEntity
   8
0
 370
-2
 100
AcDbLine
   6
BYBLOCK
  62
0
  10
0.0
  20
-0.57735027000000
  30
0.0
  11
0.0
  21
 0.57735027000000
  31
0.0
   0
ENDBLK
   5
91
 100
AcDbEntity
   8
0
 100
AcDbBlockEnd
   0
BLOCK
   5
92
 100
AcDbEntity
   8
0
 100
AcDbBlockBegin
   2
_DATUMFILLED
  70
0
  10
0.0
  20
0.0
  30
0.0
   3
_DATUMFILLED
   0
SOLID
   5
93
 100
AcDbEntity
   8
0
 100
AcDbTrace
   6
BYBLOCK
  62
0
  10
0.0
  20
 0.57735027000000
  30
0.0
  11
-1.0000000000000
  21
0.0
  31
0.0
  12
0.0
  22
-0.57735027000000
  32
0.0
  13
0.0
  23
-0.57735027000000
  33
0.0
   0
ENDBLK
   5
94
 100
AcDbEntity
   8
0
 100
AcDbBlockEnd
   0
BLOCK
   5
95
 100
AcDbEntity
   8
0
 100
AcDbBlockBegin
   2
_ORIGIN
  70
0
  10
0.0
  20
0.0
  30
0.0
   3
_ORIGIN
   0
CIRCLE
   5
96
 100
AcDbEntity
   8
0
 370
-2
 100
AcDbCircle
   6
BYBLOCK
  62
0
  10
0.0
  20
0.0
  30
0.0
  40
 0.50000000000000
   0
LINE
   5
97
 100
AcDbEntity
   8
0
 370
-2
 100
AcDbLine
   6
BYBLOCK
  62
0
  10
0.0
  20
0.0
  30
0.0
  11
-1.0000000000000
  21
0.0
  31
0.0
   0
ENDBLK
   5
98
 100
AcDbEntity
   8
0
 100
AcDbBlockEnd
   0
BLOCK
   5
99
 100
AcDbEntity
   8
0
 100
AcDbBlockBegin
   2
_NONE
  70
0
  10
0.0
  20
0.0
  30
0.0
   3
_NONE
   0
CIRCLE
   5
9A
 100
AcDbEntity
   8
0
 370
-2
 100
AcDbCircle
   6
BYBLOCK
  62
0
  10
0.0
  20
0.0
  30
0.0
  40
 0.25000000000000
   0
ENDBLK
   5
9B
 100
AcDbEntity
   8
0
 100
AcDbBlockEnd
   0
BLOCK
   5
9C
 100
AcDbEntity
   8
0
 100
AcDbBlockBegin
   2
_DOTBLANK
  70
0
  10
0.0
  20
0.0
  30
0.0
   3
_DOTBLANK
   0
CIRCLE
   5
9D
 100
AcDbEntity
   8
0
 370
-2
 100
AcDbCircle
   6
BYBLOCK
  62
0
  10
0.0
  20
0.0
  30
0.0
  40
 0.50000000000000
   0
LINE
   5
9E
 100
AcDbEntity
   8
0
 370
-2
 100
AcDbLine
   6
BYBLOCK
  62
0
  10
-0.50000000000000
  20
0.0
  30
0.0
  11
-1.0000000000000
  21
0.0
  31
0.0
   0
ENDBLK
   5
9F
 100
AcDbEntity
   8
0
 100
AcDbBlockEnd
   0
BLOCK
   5
A0
 100
AcDbEntity
   8
0
 100
AcDbBlockBegin
   2
_INTEGRAL
  70
0
  10
0.0
  20
0.0
  30
0.0
   3
_INTEGRAL
   0
ARC
   5
A1
 100
AcDbEntity
   8
0
 370
-2
   6
BYBLOCK
  62
0
 100
AcDbCircle
  10
 0.44488800000000
  20
-0.91335000000000E-1
  30
0.0
  40
 0.45416700000000
 100
AcDbArc
  50
 102.00000000000
  51
 168.00000000000
   0
ARC
   5
A2
 100
AcDbEntity
   8
0
 370
-2
   6
BYBLOCK
  62
0
 100
AcDbCircle
  10
-0.44488800000000
  20
 0.91335000000000E-1
  30
0.0
  40
 0.45416700000000
 100
AcDbArc
  50
 282.00000000000
  51
 348.00000000000
   0
ENDBLK
   5
A3
 100
AcDbEntity
   8
0
 100
AcDbBlockEnd
   0
ENDSEC
   0
SECTION
   2
ENTITIES
   0
LINE
   5
A4
 100
AcDbEntity
   8
LEVEL002
 370
40
 100
AcDbLine
   6
CONTINUOUS
  62
3
  10
 15.499999999998
  20
 275.00000000000
  30
0.0
  11
 304.50000000000
  21
 275.00000000000
  31
0.0
   0
LINE
   5
A5
 100
AcDbEntity
   8
LEVEL002
 370
40
 100
AcDbLine
   6
CONTINUOUS
  62
3
  10
 304.50000000000
  20
 285.00000000000
  30
0.0
  11
 304.50000000000
  21
 12.000000000001
  31
0.0
   0
LINE
   5
A6
 100
AcDbEntity
   8
LEVEL002
 370
40
 100
AcDbLine
   6
CONTINUOUS
  62
3
  10
 304.50000000000
  20
 256.75000000000
  30
0.0
  11
 404.50000000000
  21
 256.75000000000
  31
0.0
   0
LINE
   5
A7
 100
AcDbEntity
   8
LEVEL002
 370
40
 100
AcDbLine
   6
CONTINUOUS
  62
3
  10
 304.50000000000
  20
 236.75000000000
  30
0.0
  11
 404.50000000000
  21
 236.75000000000
  31
0.0
   0
LINE
   5
A8
 100
AcDbEntity
   8
LEVEL002
 370
40
 100
AcDbLine
   6
CONTINUOUS
  62
3
  10
 304.50000000000
  20
 216.75000000000
  30
0.0
  11
 404.50000000000
  21
 216.75000000000
  31
0.0
   0
LINE
   5
A9
 100
AcDbEntity
   8
LEVEL002
 370
40
 100
AcDbLine
   6
CONTINUOUS
  62
3
  10
 160.00000000000
  20
 285.00000000000
  30
0.0
  11
 160.00000000000
  21
 12.000000000001
  31
0.0
   0
LINE
   5
AA
 100
AcDbEntity
   8
LEVEL002
 370
40
 100
AcDbLine
   6
CONTINUOUS
  62
3
  10
 304.50000000000
  20
 72.000000000001
  30
0.0
  11
 404.50000000000
  21
 72.000000000001
  31
0.0
   0
LINE
   5
AB
 100
AcDbEntity
   8
LEVEL002
 370
40
 100
AcDbLine
   6
CONTINUOUS
  62
3
  10
 304.50000000000
  20
 52.000000000001
  30
0.0
  11
 404.50000000000
  21
 52.000000000001
  31
0.0
   0
LINE
   5
AC
 100
AcDbEntity
   8
LEVEL002
 370
40
 100
AcDbLine
   6
CONTINUOUS
  62
3
  10
 354.50000000000
  20
 45.333333333334
  30
0.0
  11
 404.50000000000
  21
 45.333333333334
  31
0.0
   0
LINE
   5
AD
 100
AcDbEntity
   8
LEVEL002
 370
40
 100
AcDbLine
   6
CONTINUOUS
  62
3
  10
 354.50000000000
  20
 52.000000000001
  30
0.0
  11
 354.50000000000
  21
 12.000000000001
  31
0.0
   0
LINE
   5
AE
 100
AcDbEntity
   8
LEVEL002
 370
40
 100
AcDbLine
   6
CONTINUOUS
  62
3
  10
 354.50000000000
  20
 38.666666666668
  30
0.0
  11
 404.50000000000
  21
 38.666666666668
  31
0.0
   0
LINE
   5
AF
 100
AcDbEntity
   8
LEVEL002
 370
40
 100
AcDbLine
   6
CONTINUOUS
  62
3
  10
 15.499999999998
  20
 194.00000000000
  30
0.0
  11
 304.50000000000
  21
 194.00000000000
  31
0.0
   0
LINE
   5
B0
 100
AcDbEntity
   8
LEVEL002
 370
40
 100
AcDbLine
   6
CONTINUOUS
  62
3
  10
 15.499999999998
  20
 184.00000000000
  30
0.0
  11
 304.50000000000
  21
 184.00000000000
  31
0.0
   0
LINE
   5
B1
 100
AcDbEntity
   8
LEVEL002
 370
40
 100
AcDbLine
   6
CONTINUOUS
  62
3
  10
 15.499999999998
  20
 103.00000000000
  30
0.0
  11
 304.50000000000
  21
 103.00000000000
  31
0.0
   0
LINE
   5
B2
 100
AcDbEntity
   8
LEVEL002
 370
40
 100
AcDbLine
   6
CONTINUOUS
  62
3
  10
 15.499999999998
  20
 93.000000000001
  30
0.0
  11
 304.50000000000
  21
 93.000000000001
  31
0.0
   0
LINE
   5
B3
 100
AcDbEntity
   8
LEVEL001
 370
40
 100
AcDbLine
   6
CONTINUOUS
  62
3
  10
 15.499999999998
  20
 275.00000000000
  30
0.0
  11
 304.50000000000
  21
 275.00000000000
  31
0.0
   0
LINE
   5
B4
 100
AcDbEntity
   8
LEVEL001
 370
40
 100
AcDbLine
   6
CONTINUOUS
  62
3
  10
 304.50000000000
  20
 285.00000000000
  30
0.0
  11
 304.50000000000
  21
 12.000000000001
  31
0.0
   0
LINE
   5
B5
 100
AcDbEntity
   8
LEVEL001
 370
40
 100
AcDbLine
   6
CONTINUOUS
  62
3
  10
 304.50000000000
  20
 256.75000000000
  30
0.0
  11
 404.50000000000
  21
 256.75000000000
  31
0.0
   0
LINE
   5
B6
 100
AcDbEntity
   8
LEVEL001
 370
40
 100
AcDbLine
   6
CONTINUOUS
  62
3
  10
 304.50000000000
  20
 236.75000000000
  30
0.0
  11
 404.50000000000
  21
 236.75000000000
  31
0.0
   0
LINE
   5
B7
 100
AcDbEntity
   8
LEVEL001
 370
40
 100
AcDbLine
   6
CONTINUOUS
  62
3
  10
 304.50000000000
  20
 216.75000000000
  30
0.0
  11
 404.50000000000
  21
 216.75000000000
  31
0.0
   0
LINE
   5
B8
 100
AcDbEntity
   8
LEVEL001
 370
40
 100
AcDbLine
   6
CONTINUOUS
  62
3
  10
 160.00000000000
  20
 285.00000000000
  30
0.0
  11
 160.00000000000
  21
 12.000000000001
  31
0.0
   0
LINE
   5
B9
 100
AcDbEntity
   8
LEVEL001
 370
40
 100
AcDbLine
   6
CONTINUOUS
  62
3
  10
 304.50000000000
  20
 72.000000000001
  30
0.0
  11
 404.50000000000
  21
 72.000000000001
  31
0.0
   0
LINE
   5
BA
 100
AcDbEntity
   8
LEVEL001
 370
40
 100
AcDbLine
   6
CONTINUOUS
  62
3
  10
 304.50000000000
  20
 52.000000000001
  30
0.0
  11
 404.50000000000
  21
 52.000000000001
  31
0.0
   0
LINE
   5
BB
 100
AcDbEntity
   8
LEVEL001
 370
40
 100
AcDbLine
   6
CONTINUOUS
  62
3
  10
 354.50000000000
  20
 45.333333333334
  30
0.0
  11
 404.50000000000
  21
 45.333333333334
  31
0.0
   0
LINE
   5
BC
 100
AcDbEntity
   8
LEVEL001
 370
40
 100
AcDbLine
   6
CONTINUOUS
  62
3
  10
 354.50000000000
  20
 52.000000000001
  30
0.0
  11
 354.50000000000
  21
 12.000000000001
  31
0.0
   0
LINE
   5
BD
 100
AcDbEntity
   8
LEVEL001
 370
40
 100
AcDbLine
   6
CONTINUOUS
  62
3
  10
 354.50000000000
  20
 38.666666666668
  30
0.0
  11
 404.50000000000
  21
 38.666666666668
  31
0.0
   0
LINE
   5
BE
 100
AcDbEntity
   8
LEVEL001
 370
40
 100
AcDbLine
   6
CONTINUOUS
  62
3
  10
 15.499999999998
  20
 194.00000000000
  30
0.0
  11
 304.50000000000
  21
 194.00000000000
  31
0.0
   0
LINE
   5
BF
 100
AcDbEntity
   8
LEVEL001
 370
40
 100
AcDbLine
   6
CONTINUOUS
  62
3
  10
 15.499999999998
  20
 184.00000000000
  30
0.0
  11
 304.50000000000
  21
 184.00000000000
  31
0.0
   0
LINE
   5
C0
 100
AcDbEntity
   8
LEVEL001
 370
40
 100
AcDbLine
   6
CONTINUOUS
  62
3
  10
 15.499999999998
  20
 103.00000000000
  30
0.0
  11
 304.50000000000
  21
 103.00000000000
  31
0.0
   0
LINE
   5
C1
 100
AcDbEntity
   8
LEVEL001
 370
40
 100
AcDbLine
   6
CONTINUOUS
  62
3
  10
 15.499999999998
  20
 93.000000000001
  30
0.0
  11
 304.50000000000
  21
 93.000000000001
  31
0.0
   0
LINE
   5
C2
 100
AcDbEntity
   8
LEVEL002
 370
30
 100
AcDbLine
   6
CONTINUOUS
  62
7
  10
 344.15000000005
  20
 272.07500000000
  30
0.0
  11
 336.95000000005
  21
 272.07500000000
  31
0.0
   0
LINE
   5
C3
 100
AcDbEntity
   8
LEVEL002
 370
30
 100
AcDbLine
   6
CONTINUOUS
  62
7
  10
 336.95000000005
  20
 272.07500000000
  30
0.0
  11
 336.95000000005
  21
 261.27500000000
  31
0.0
   0
LINE
   5
C4
 100
AcDbEntity
   8
LEVEL002
 370
30
 100
AcDbLine
   6
CONTINUOUS
  62
7
  10
 336.95000000005
  20
 261.27500000000
  30
0.0
  11
 340.55000000005
  21
 261.27500000000
  31
0.0
   0
LINE
   5
C5
 100
AcDbEntity
   8
LEVEL002
 370
30
 100
AcDbLine
   6
CONTINUOUS
  62
7
  10
 340.55000000005
  20
 261.27500000000
  30
0.0
  11
 340.55000000005
  21
 263.07500000000
  31
0.0
   0
LINE
   5
C6
 100
AcDbEntity
   8
LEVEL002
 370
30
 100
AcDbLine
   6
CONTINUOUS
  62
7
  10
 340.55000000005
  20
 263.07500000000
  30
0.0
  11
 344.15000000005
  21
 263.07500000000
  31
0.0
   0
ARC
   5
C7
 100
AcDbEntity
   8
LEVEL002
 370
30
   6
CONTINUOUS
  62
7
 100
AcDbCircle
  10
 344.15000000005
  20
 267.57500000000
  30
0.0
  40
 4.5000000000000
 100
AcDbArc
  50
 270.00000000000
  51
 90.000000000000
   0
LINE
   5
C8
 100
AcDbEntity
   8
LEVEL002
 370
30
 100
AcDbLine
   6
CONTINUOUS
  62
7
  10
 340.55000000005
  20
 266.67500000000
  30
0.0
  11
 344.15000000005
  21
 266.67500000000
  31
0.0
   0
ARC
   5
C9
 100
AcDbEntity
   8
LEVEL002
 370
30
   6
CONTINUOUS
  62
7
 100
AcDbCircle
  10
 344.15000000005
  20
 267.57500000000
  30
0.0
  40
 0.90000000000000
 100
AcDbArc
  50
 270.00000000000
  51
 90.000000000000
   0
LINE
   5
CA
 100
AcDbEntity
   8
LEVEL002
 370
30
 100
AcDbLine
   6
CONTINUOUS
  62
7
  10
 344.15000000005
  20
 268.47500000000
  30
0.0
  11
 340.55000000005
  21
 268.47500000000
  31
0.0
   0
LINE
   5
CB
 100
AcDbEntity
   8
LEVEL002
 370
30
 100
AcDbLine
   6
CONTINUOUS
  62
7
  10
 340.55000000005
  20
 268.47500000000
  30
0.0
  11
 340.55000000005
  21
 266.67500000000
  31
0.0
   0
LINE
   5
CC
 100
AcDbEntity
   8
LEVEL002
 370
30
 100
AcDbLine
   6
CONTINUOUS
  62
7
  10
 345.95000000005
  20
 261.27500000000
  30
0.0
  11
 353.15000000005
  21
 272.07500000000
  31
0.0
   0
LINE
   5
CD
 100
AcDbEntity
   8
LEVEL002
 370
30
 100
AcDbLine
   6
CONTINUOUS
  62
7
  10
 353.15000000005
  20
 272.07500000000
  30
0.0
  11
 362.15000000005
  21
 272.07500000000
  31
0.0
   0
LINE
   5
CE
 100
AcDbEntity
   8
LEVEL002
 370
30
 100
AcDbLine
   6
CONTINUOUS
  62
7
  10
 362.15000000005
  20
 272.07500000000
  30
0.0
  11
 362.15000000005
  21
 264.87500000000
  31
0.0
   0
LINE
   5
CF
 100
AcDbEntity
   8
LEVEL002
 370
30
 100
AcDbLine
   6
CONTINUOUS
  62
7
  10
 362.15000000005
  20
 264.87500000000
  30
0.0
  11
 367.55000000005
  21
 264.87500000000
  31
0.0
   0
LINE
   5
D0
 100
AcDbEntity
   8
LEVEL002
 370
30
 100
AcDbLine
   6
CONTINUOUS
  62
7
  10
 367.55000000005
  20
 264.87500000000
  30
0.0
  11
 367.55000000005
  21
 268.47500000000
  31
0.0
   0
LINE
   5
D1
 100
AcDbEntity
   8
LEVEL002
 370
30
 100
AcDbLine
   6
CONTINUOUS
  62
7
  10
 367.55000000005
  20
 268.47500000000
  30
0.0
  11
 363.95000000005
  21
 268.47500000000
  31
0.0
   0
LINE
   5
D2
 100
AcDbEntity
   8
LEVEL002
 370
30
 100
AcDbLine
   6
CONTINUOUS
  62
7
  10
 363.95000000005
  20
 268.47500000000
  30
0.0
  11
 363.95000000005
  21
 272.07500000000
  31
0.0
   0
LINE
   5
D3
 100
AcDbEntity
   8
LEVEL002
 370
30
 100
AcDbLine
   6
CONTINUOUS
  62
7
  10
 363.95000000005
  20
 272.07500000000
  30
0.0
  11
 385.55000000005
  21
 272.07500000000
  31
0.0
   0
LINE
   5
D4
 100
AcDbEntity
   8
LEVEL002
 370
30
 100
AcDbLine
   6
CONTINUOUS
  62
7
  10
 385.55000000005
  20
 272.07500000000
  30
0.0
  11
 385.55000000005
  21
 268.47500000000
  31
0.0
   0
LINE
   5
D5
 100
AcDbEntity
   8
LEVEL002
 370
30
 100
AcDbLine
   6
CONTINUOUS
  62
7
  10
 385.55000000005
  20
 268.47500000000
  30
0.0
  11
 378.35000000005
  21
 268.47500000000
  31
0.0
   0
LINE
   5
D6
 100
AcDbEntity
   8
LEVEL002
 370
30
 100
AcDbLine
   6
CONTINUOUS
  62
7
  10
 378.35000000005
  20
 268.47500000000
  30
0.0
  11
 378.35000000005
  21
 267.57500000000
  31
0.0
   0
LINE
   5
D7
 100
AcDbEntity
   8
LEVEL002
 370
30
 100
AcDbLine
   6
CONTINUOUS
  62
7
  10
 378.35000000005
  20
 267.57500000000
  30
0.0
  11
 384.65000000005
  21
 267.57500000000
  31
0.0
   0
LINE
   5
D8
 100
AcDbEntity
   8
LEVEL002
 370
30
 100
AcDbLine
   6
CONTINUOUS
  62
7
  10
 384.65000000005
  20
 267.57500000000
  30
0.0
  11
 384.65000000005
  21
 265.77500000000
  31
0.0
   0
LINE
   5
D9
 100
AcDbEntity
   8
LEVEL002
 370
30
 100
AcDbLine
   6
CONTINUOUS
  62
7
  10
 384.65000000005
  20
 265.77500000000
  30
0.0
  11
 378.35000000005
  21
 265.77500000000
  31
0.0
   0
LINE
   5
DA
 100
AcDbEntity
   8
LEVEL002
 370
30
 100
AcDbLine
   6
CONTINUOUS
  62
7
  10
 378.35000000005
  20
 265.77500000000
  30
0.0
  11
 378.35000000005
  21
 264.87500000000
  31
0.0
   0
LINE
   5
DB
 100
AcDbEntity
   8
LEVEL002
 370
30
 100
AcDbLine
   6
CONTINUOUS
  62
7
  10
 378.35000000005
  20
 264.87500000000
  30
0.0
  11
 385.55000000005
  21
 264.87500000000
  31
0.0
   0
LINE
   5
DC
 100
AcDbEntity
   8
LEVEL002
 370
30
 100
AcDbLine
   6
CONTINUOUS
  62
7
  10
 385.55000000005
  20
 264.87500000000
  30
0.0
  11
 385.55000000005
  21
 261.27500000000
  31
0.0
   0
LINE
   5
DD
 100
AcDbEntity
   8
LEVEL002
 370
30
 100
AcDbLine
   6
CONTINUOUS
  62
7
  10
 385.55000000005
  20
 261.27500000000
  30
0.0
  11
 374.75000000005
  21
 261.27500000000
  31
0.0
   0
LINE
   5
DE
 100
AcDbEntity
   8
LEVEL002
 370
30
 100
AcDbLine
   6
CONTINUOUS
  62
7
  10
 374.75000000005
  20
 261.27500000000
  30
0.0
  11
 374.75000000005
  21
 268.47500000000
  31
0.0
   0
LINE
   5
DF
 100
AcDbEntity
   8
LEVEL002
 370
30
 100
AcDbLine
   6
CONTINUOUS
  62
7
  10
 374.75000000005
  20
 268.47500000000
  30
0.0
  11
 371.15000000005
  21
 268.47500000000
  31
0.0
   0
LINE
   5
E0
 100
AcDbEntity
   8
LEVEL002
 370
30
 100
AcDbLine
   6
CONTINUOUS
  62
7
  10
 371.15000000005
  20
 268.47500000000
  30
0.0
  11
 371.15000000005
  21
 261.27500000000
  31
0.0
   0
LINE
   5
E1
 100
AcDbEntity
   8
LEVEL002
 370
30
 100
AcDbLine
   6
CONTINUOUS
  62
7
  10
 371.15000000005
  20
 261.27500000000
  30
0.0
  11
 358.55000000005
  21
 261.27500000000
  31
0.0
   0
LINE
   5
E2
 100
AcDbEntity
   8
LEVEL002
 370
30
 100
AcDbLine
   6
CONTINUOUS
  62
7
  10
 358.55000000005
  20
 261.27500000000
  30
0.0
  11
 358.55000000005
  21
 272.07500000000
  31
0.0
   0
LINE
   5
E3
 100
AcDbEntity
   8
LEVEL002
 370
30
 100
AcDbLine
   6
CONTINUOUS
  62
7
  10
 358.55000000005
  20
 272.07500000000
  30
0.0
  11
 351.35000000005
  21
 261.27500000000
  31
0.0
   0
LINE
   5
E4
 100
AcDbEntity
   8
LEVEL002
 370
30
 100
AcDbLine
   6
CONTINUOUS
  62
7
  10
 351.35000000005
  20
 261.27500000000
  30
0.0
  11
 345.95000000005
  21
 261.27500000000
  31
0.0
   0
LINE
   5
E5
 100
AcDbEntity
   8
LEVEL002
 370
30
 100
AcDbLine
   6
CONTINUOUS
  62
7
  10
 357.35000000005
  20
 268.11166923470
  30
0.0
  11
 352.79222051025
  21
 261.27500000000
  31
0.0
   0
LINE
   5
E6
 100
AcDbEntity
   8
LEVEL002
 370
30
 100
AcDbLine
   6
CONTINUOUS
  62
7
  10
 352.79222051025
  20
 261.27500000000
  30
0.0
  11
 357.35000000005
  21
 261.27500000000
  31
0.0
   0
LINE
   5
E7
 100
AcDbEntity
   8
LEVEL002
 370
30
 100
AcDbLine
   6
CONTINUOUS
  62
7
  10
 357.35000000005
  20
 261.27500000000
  30
0.0
  11
 357.35000000005
  21
 268.11166923470
  31
0.0
   0
ARC
   5
E8
 100
AcDbEntity
   8
LEVEL002
 370
30
   6
CONTINUOUS
  62
7
 100
AcDbCircle
  10
 390.95000000005
  20
 266.67500000000
  30
0.0
  40
 5.4000000000000
 100
AcDbArc
  50
 90.000000000000
  51
 270.00000000000
   0
ARC
   5
E9
 100
AcDbEntity
   8
LEVEL002
 370
30
   6
CONTINUOUS
  62
7
 100
AcDbCircle
  10
 390.95000000005
  20
 266.67500000000
  30
0.0
  40
 1.8000000000000
 100
AcDbArc
  50
 90.000000000000
  51
 270.00000000000
   0
LINE
   5
EA
 100
AcDbEntity
   8
LEVEL002
 370
30
 100
AcDbLine
   6
CONTINUOUS
  62
7
  10
 390.95000000005
  20
 272.07500000000
  30
0.0
  11
 396.35000000005
  21
 272.07500000000
  31
0.0
   0
LINE
   5
EB
 100
AcDbEntity
   8
LEVEL002
 370
30
 100
AcDbLine
   6
CONTINUOUS
  62
7
  10
 396.35000000005
  20
 272.07500000000
  30
0.0
  11
 396.35000000005
  21
 268.47500000000
  31
0.0
   0
LINE
   5
EC
 100
AcDbEntity
   8
LEVEL002
 370
30
 100
AcDbLine
   6
CONTINUOUS
  62
7
  10
 396.35000000005
  20
 268.47500000000
  30
0.0
  11
 390.95000000005
  21
 268.47500000000
  31
0.0
   0
LINE
   5
ED
 100
AcDbEntity
   8
LEVEL002
 370
30
 100
AcDbLine
   6
CONTINUOUS
  62
7
  10
 336.95000000005
  20
 272.07500000000
  30
0.0
  11
 336.95000000005
  21
 261.27500000000
  31
0.0
   0
LINE
   5
EE
 100
AcDbEntity
   8
LEVEL002
 370
30
 100
AcDbLine
   6
CONTINUOUS
  62
7
  10
 336.95000000005
  20
 261.27500000000
  30
0.0
  11
 340.55000000005
  21
 261.27500000000
  31
0.0
   0
LINE
   5
EF
 100
AcDbEntity
   8
LEVEL002
 370
30
 100
AcDbLine
   6
CONTINUOUS
  62
7
  10
 340.55000000005
  20
 261.27500000000
  30
0.0
  11
 340.55000000005
  21
 263.07500000000
  31
0.0
   0
LINE
   5
F0
 100
AcDbEntity
   8
LEVEL002
 370
30
 100
AcDbLine
   6
CONTINUOUS
  62
7
  10
 340.55000000005
  20
 263.07500000000
  30
0.0
  11
 344.15000000005
  21
 263.07500000000
  31
0.0
   0
ARC
   5
F1
 100
AcDbEntity
   8
LEVEL002
 370
30
   6
CONTINUOUS
  62
7
 100
AcDbCircle
  10
 344.15000000005
  20
 267.57500000000
  30
0.0
  40
 4.5000000000000
 100
AcDbArc
  50
 270.00000000000
  51
 90.000000000000
   0
LINE
   5
F2
 100
AcDbEntity
   8
LEVEL002
 370
30
 100
AcDbLine
   6
CONTINUOUS
  62
7
  10
 344.15000000005
  20
 272.07500000000
  30
0.0
  11
 336.95000000005
  21
 272.07500000000
  31
0.0
   0
LINE
   5
F3
 100
AcDbEntity
   8
LEVEL002
 370
30
 100
AcDbLine
   6
CONTINUOUS
  62
7
  10
 340.55000000005
  20
 268.47500000000
  30
0.0
  11
 340.55000000005
  21
 266.67500000000
  31
0.0
   0
LINE
   5
F4
 100
AcDbEntity
   8
LEVEL002
 370
30
 100
AcDbLine
   6
CONTINUOUS
  62
7
  10
 340.55000000005
  20
 266.67500000000
  30
0.0
  11
 344.15000000005
  21
 266.67500000000
  31
0.0
   0
ARC
   5
F5
 100
AcDbEntity
   8
LEVEL002
 370
30
   6
CONTINUOUS
  62
7
 100
AcDbCircle
  10
 344.15000000005
  20
 267.57500000000
  30
0.0
  40
 0.90000000000000
 100
AcDbArc
  50
 270.00000000000
  51
 90.000000000000
   0
LINE
   5
F6
 100
AcDbEntity
   8
LEVEL002
 370
30
 100
AcDbLine
   6
CONTINUOUS
  62
7
  10
 344.15000000005
  20
 268.47500000000
  30
0.0
  11
 340.55000000005
  21
 268.47500000000
  31
0.0
   0
LINE
   5
F7
 100
AcDbEntity
   8
LEVEL002
 370
30
 100
AcDbLine
   6
CONTINUOUS
  62
7
  10
 353.15000000005
  20
 272.07500000000
  30
0.0
  11
 345.95000000005
  21
 261.27500000000
  31
0.0
   0
LINE
   5
F8
 100
AcDbEntity
   8
LEVEL002
 370
30
 100
AcDbLine
   6
CONTINUOUS
  62
7
  10
 345.95000000005
  20
 261.27500000000
  30
0.0
  11
 351.35000000005
  21
 261.27500000000
  31
0.0
   0
LINE
   5
F9
 100
AcDbEntity
   8
LEVEL002
 370
30
 100
AcDbLine
   6
CONTINUOUS
  62
7
  10
 351.35000000005
  20
 261.27500000000
  30
0.0
  11
 358.55000000005
  21
 272.07500000000
  31
0.0
   0
LINE
   5
FA
 100
AcDbEntity
   8
LEVEL002
 370
30
 100
AcDbLine
   6
CONTINUOUS
  62
7
  10
 358.55000000005
  20
 272.07500000000
  30
0.0
  11
 353.15000000005
  21
 272.07500000000
  31
0.0
   0
LINE
   5
FB
 100
AcDbEntity
   8
LEVEL002
 370
30
 100
AcDbLine
   6
CONTINUOUS
  62
7
  10
 357.35000000005
  20
 261.27500000000
  30
0.0
  11
 357.35000000005
  21
 268.11166923470
  31
0.0
   0
LINE
   5
FC
 100
AcDbEntity
   8
LEVEL002
 370
30
 100
AcDbLine
   6
CONTINUOUS
  62
7
  10
 357.35000000005
  20
 268.11166923470
  30
0.0
  11
 352.79222051025
  21
 261.27500000000
  31
0.0
   0
LINE
   5
FD
 100
AcDbEntity
   8
LEVEL002
 370
30
 100
AcDbLine
   6
CONTINUOUS
  62
7
  10
 352.79222051025
  20
 261.27500000000
  30
0.0
  11
 357.35000000005
  21
 261.27500000000
  31
0.0
   0
LINE
   5
FE
 100
AcDbEntity
   8
LEVEL002
 370
30
 100
AcDbLine
   6
CONTINUOUS
  62
7
  10
 358.55000000005
  20
 261.27500000000
  30
0.0
  11
 371.15000000005
  21
 261.27500000000
  31
0.0
   0
LINE
   5
FF
 100
AcDbEntity
   8
LEVEL002
 370
30
 100
AcDbLine
   6
CONTINUOUS
  62
7
  10
 371.15000000005
  20
 261.27500000000
  30
0.0
  11
 371.15000000005
  21
 268.47500000000
  31
0.0
   0
LINE
   5
100
 100
AcDbEntity
   8
LEVEL002
 370
30
 100
AcDbLine
   6
CONTINUOUS
  62
7
  10
 371.15000000005
  20
 268.47500000000
  30
0.0
  11
 374.75000000005
  21
 268.47500000000
  31
0.0
   0
LINE
   5
101
 100
AcDbEntity
   8
LEVEL002
 370
30
 100
AcDbLine
   6
CONTINUOUS
  62
7
  10
 374.75000000005
  20
 268.47500000000
  30
0.0
  11
 374.75000000005
  21
 261.27500000000
  31
0.0
   0
LINE
   5
102
 100
AcDbEntity
   8
LEVEL002
 370
30
 100
AcDbLine
   6
CONTINUOUS
  62
7
  10
 374.75000000005
  20
 261.27500000000
  30
0.0
  11
 385.55000000005
  21
 261.27500000000
  31
0.0
   0
LINE
   5
103
 100
AcDbEntity
   8
LEVEL002
 370
30
 100
AcDbLine
   6
CONTINUOUS
  62
7
  10
 385.55000000005
  20
 261.27500000000
  30
0.0
  11
 385.55000000005
  21
 264.87500000000
  31
0.0
   0
LINE
   5
104
 100
AcDbEntity
   8
LEVEL002
 370
30
 100
AcDbLine
   6
CONTINUOUS
  62
7
  10
 385.55000000005
  20
 264.87500000000
  30
0.0
  11
 378.35000000005
  21
 264.87500000000
  31
0.0
   0
LINE
   5
105
 100
AcDbEntity
   8
LEVEL002
 370
30
 100
AcDbLine
   6
CONTINUOUS
  62
7
  10
 378.35000000005
  20
 264.87500000000
  30
0.0
  11
 378.35000000005
  21
 265.77500000000
  31
0.0
   0
LINE
   5
106
 100
AcDbEntity
   8
LEVEL002
 370
30
 100
AcDbLine
   6
CONTINUOUS
  62
7
  10
 378.35000000005
  20
 265.77500000000
  30
0.0
  11
 384.65000000005
  21
 265.77500000000
  31
0.0
   0
LINE
   5
107
 100
AcDbEntity
   8
LEVEL002
 370
30
 100
AcDbLine
   6
CONTINUOUS
  62
7
  10
 384.65000000005
  20
 265.77500000000
  30
0.0
  11
 384.65000000005
  21
 267.57500000000
  31
0.0
   0
LINE
   5
108
 100
AcDbEntity
   8
LEVEL002
 370
30
 100
AcDbLine
   6
CONTINUOUS
  62
7
  10
 384.65000000005
  20
 267.57500000000
  30
0.0
  11
 378.35000000005
  21
 267.57500000000
  31
0.0
   0
LINE
   5
109
 100
AcDbEntity
   8
LEVEL002
 370
30
 100
AcDbLine
   6
CONTINUOUS
  62
7
  10
 378.35000000005
  20
 267.57500000000
  30
0.0
  11
 378.35000000005
  21
 268.47500000000
  31
0.0
   0
LINE
   5
10A
 100
AcDbEntity
   8
LEVEL002
 370
30
 100
AcDbLine
   6
CONTINUOUS
  62
7
  10
 378.35000000005
  20
 268.47500000000
  30
0.0
  11
 385.55000000005
  21
 268.47500000000
  31
0.0
   0
LINE
   5
10B
 100
AcDbEntity
   8
LEVEL002
 370
30
 100
AcDbLine
   6
CONTINUOUS
  62
7
  10
 385.55000000005
  20
 268.47500000000
  30
0.0
  11
 385.55000000005
  21
 272.07500000000
  31
0.0
   0
LINE
   5
10C
 100
AcDbEntity
   8
LEVEL002
 370
30
 100
AcDbLine
   6
CONTINUOUS
  62
7
  10
 385.55000000005
  20
 272.07500000000
  30
0.0
  11
 363.95000000005
  21
 272.07500000000
  31
0.0
   0
LINE
   5
10D
 100
AcDbEntity
   8
LEVEL002
 370
30
 100
AcDbLine
   6
CONTINUOUS
  62
7
  10
 363.95000000005
  20
 272.07500000000
  30
0.0
  11
 363.95000000005
  21
 268.47500000000
  31
0.0
   0
LINE
   5
10E
 100
AcDbEntity
   8
LEVEL002
 370
30
 100
AcDbLine
   6
CONTINUOUS
  62
7
  10
 363.95000000005
  20
 268.47500000000
  30
0.0
  11
 367.55000000005
  21
 268.47500000000
  31
0.0
   0
LINE
   5
10F
 100
AcDbEntity
   8
LEVEL002
 370
30
 100
AcDbLine
   6
CONTINUOUS
  62
7
  10
 367.55000000005
  20
 268.47500000000
  30
0.0
  11
 367.55000000005
  21
 264.87500000000
  31
0.0
   0
LINE
   5
110
 100
AcDbEntity
   8
LEVEL002
 370
30
 100
AcDbLine
   6
CONTINUOUS
  62
7
  10
 367.55000000005
  20
 264.87500000000
  30
0.0
  11
 362.15000000005
  21
 264.87500000000
  31
0.0
   0
LINE
   5
111
 100
AcDbEntity
   8
LEVEL002
 370
30
 100
AcDbLine
   6
CONTINUOUS
  62
7
  10
 362.15000000005
  20
 264.87500000000
  30
0.0
  11
 362.15000000005
  21
 272.07500000000
  31
0.0
   0
LINE
   5
112
 100
AcDbEntity
   8
LEVEL002
 370
30
 100
AcDbLine
   6
CONTINUOUS
  62
7
  10
 362.15000000005
  20
 272.07500000000
  30
0.0
  11
 358.55000000005
  21
 272.07500000000
  31
0.0
   0
LINE
   5
113
 100
AcDbEntity
   8
LEVEL002
 370
30
 100
AcDbLine
   6
CONTINUOUS
  62
7
  10
 358.55000000005
  20
 272.07500000000
  30
0.0
  11
 358.55000000005
  21
 261.27500000000
  31
0.0
   0
LINE
   5
114
 100
AcDbEntity
   8
LEVEL002
 370
30
 100
AcDbLine
   6
CONTINUOUS
  62
7
  10
 390.95000000005
  20
 261.27500000000
  30
0.0
  11
 396.35000000005
  21
 261.27500000000
  31
0.0
   0
LINE
   5
115
 100
AcDbEntity
   8
LEVEL002
 370
30
 100
AcDbLine
   6
CONTINUOUS
  62
7
  10
 396.35000000005
  20
 261.27500000000
  30
0.0
  11
 396.35000000005
  21
 264.87500000000
  31
0.0
   0
LINE
   5
116
 100
AcDbEntity
   8
LEVEL002
 370
30
 100
AcDbLine
   6
CONTINUOUS
  62
7
  10
 396.35000000005
  20
 264.87500000000
  30
0.0
  11
 390.95000000005
  21
 264.87500000000
  31
0.0
   0
ARC
   5
117
 100
AcDbEntity
   8
LEVEL002
 370
30
   6
CONTINUOUS
  62
7
 100
AcDbCircle
  10
 390.95000000005
  20
 266.67500000000
  30
0.0
  40
 1.8000000000000
 100
AcDbArc
  50
 90.000000000000
  51
 270.00000000000
   0
LINE
   5
118
 100
AcDbEntity
   8
LEVEL002
 370
30
 100
AcDbLine
   6
CONTINUOUS
  62
7
  10
 390.95000000005
  20
 268.47500000000
  30
0.0
  11
 396.35000000005
  21
 268.47500000000
  31
0.0
   0
LINE
   5
119
 100
AcDbEntity
   8
LEVEL002
 370
30
 100
AcDbLine
   6
CONTINUOUS
  62
7
  10
 396.35000000005
  20
 268.47500000000
  30
0.0
  11
 396.35000000005
  21
 272.07500000000
  31
0.0
   0
LINE
   5
11A
 100
AcDbEntity
   8
LEVEL002
 370
30
 100
AcDbLine
   6
CONTINUOUS
  62
7
  10
 396.35000000005
  20
 272.07500000000
  30
0.0
  11
 390.95000000005
  21
 272.07500000000
  31
0.0
   0
ARC
   5
11B
 100
AcDbEntity
   8
LEVEL002
 370
30
   6
CONTINUOUS
  62
7
 100
AcDbCircle
  10
 390.95000000005
  20
 266.67500000000
  30
0.0
  40
 5.4000000000000
 100
AcDbArc
  50
 90.000000000000
  51
 270.00000000000
   0
LINE
   5
11C
 100
AcDbEntity
   8
LEVEL002
 370
30
 100
AcDbLine
   6
CONTINUOUS
  62
7
  10
 333.35000000005
  20
 263.67500000000
  30
0.0
  11
 328.85000000005
  21
 270.87500000000
  31
0.0
   0
LINE
   5
11D
 100
AcDbEntity
   8
LEVEL002
 370
30
 100
AcDbLine
   6
CONTINUOUS
  62
7
  10
 328.85000000005
  20
 270.87500000000
  30
0.0
  11
 333.35000000005
  21
 270.87500000000
  31
0.0
   0
LINE
   5
11E
 100
AcDbEntity
   8
LEVEL002
 370
30
 100
AcDbLine
   6
CONTINUOUS
  62
7
  10
 333.35000000005
  20
 270.87500000000
  30
0.0
  11
 333.35000000005
  21
 263.67500000000
  31
0.0
   0
LINE
   5
11F
 100
AcDbEntity
   8
LEVEL002
 370
30
 100
AcDbLine
   6
CONTINUOUS
  62
7
  10
 328.85000000005
  20
 270.87500000000
  30
0.0
  11
 333.35000000005
  21
 263.67500000000
  31
0.0
   0
LINE
   5
120
 100
AcDbEntity
   8
LEVEL002
 370
30
 100
AcDbLine
   6
CONTINUOUS
  62
7
  10
 333.35000000005
  20
 263.67500000000
  30
0.0
  11
 333.35000000005
  21
 270.87500000000
  31
0.0
   0
LINE
   5
121
 100
AcDbEntity
   8
LEVEL002
 370
30
 100
AcDbLine
   6
CONTINUOUS
  62
7
  10
 333.35000000005
  20
 270.87500000000
  30
0.0
  11
 328.85000000005
  21
 270.87500000000
  31
0.0
   0
LINE
   5
122
 100
AcDbEntity
   8
LEVEL002
 370
30
 100
AcDbLine
   6
CONTINUOUS
  62
7
  10
 319.05000000005
  20
 280.47500000000
  30
0.0
  11
 312.65000000005
  21
 270.87500000000
  31
0.0
   0
LINE
   5
123
 100
AcDbEntity
   8
LEVEL002
 370
30
 100
AcDbLine
   6
CONTINUOUS
  62
7
  10
 312.65000000005
  20
 270.87500000000
  30
0.0
  11
 319.05000000005
  21
 261.27500000000
  31
0.0
   0
LINE
   5
124
 100
AcDbEntity
   8
LEVEL002
 370
30
 100
AcDbLine
   6
CONTINUOUS
  62
7
  10
 324.45000000005
  20
 261.27500000000
  30
0.0
  11
 318.05000000005
  21
 270.87500000000
  31
0.0
   0
LINE
   5
125
 100
AcDbEntity
   8
LEVEL002
 370
30
 100
AcDbLine
   6
CONTINUOUS
  62
7
  10
 318.05000000005
  20
 270.87500000000
  30
0.0
  11
 324.45000000005
  21
 280.47500000000
  31
0.0
   0
LINE
   5
126
 100
AcDbEntity
   8
LEVEL002
 370
30
 100
AcDbLine
   6
CONTINUOUS
  62
7
  10
 327.15000000005
  20
 280.47500000000
  30
0.0
  11
 320.75000000005
  21
 270.87500000000
  31
0.0
   0
LINE
   5
127
 100
AcDbEntity
   8
LEVEL002
 370
30
 100
AcDbLine
   6
CONTINUOUS
  62
7
  10
 320.75000000005
  20
 270.87500000000
  30
0.0
  11
 327.15000000005
  21
 261.27500000000
  31
0.0
   0
LINE
   5
128
 100
AcDbEntity
   8
LEVEL002
 370
30
 100
AcDbLine
   6
CONTINUOUS
  62
7
  10
 332.55000000005
  20
 261.27500000000
  30
0.0
  11
 326.15000000005
  21
 270.87500000000
  31
0.0
   0
LINE
   5
129
 100
AcDbEntity
   8
LEVEL002
 370
30
 100
AcDbLine
   6
CONTINUOUS
  62
7
  10
 326.15000000005
  20
 270.87500000000
  30
0.0
  11
 332.55000000005
  21
 280.47500000000
  31
0.0
   0
LINE
   5
12A
 100
AcDbEntity
   8
LEVEL002
 370
30
 100
AcDbLine
   6
CONTINUOUS
  62
7
  10
 319.05000000005
  20
 261.27500000000
  30
0.0
  11
 312.65000000005
  21
 270.87500000000
  31
0.0
   0
LINE
   5
12B
 100
AcDbEntity
   8
LEVEL002
 370
30
 100
AcDbLine
   6
CONTINUOUS
  62
7
  10
 312.65000000005
  20
 270.87500000000
  30
0.0
  11
 319.05000000005
  21
 280.47500000000
  31
0.0
   0
LINE
   5
12C
 100
AcDbEntity
   8
LEVEL002
 370
30
 100
AcDbLine
   6
CONTINUOUS
  62
7
  10
 319.05000000005
  20
 280.47500000000
  30
0.0
  11
 324.45000000005
  21
 280.47500000000
  31
0.0
   0
LINE
   5
12D
 100
AcDbEntity
   8
LEVEL002
 370
30
 100
AcDbLine
   6
CONTINUOUS
  62
7
  10
 324.45000000005
  20
 280.47500000000
  30
0.0
  11
 318.05000000005
  21
 270.87500000000
  31
0.0
   0
LINE
   5
12E
 100
AcDbEntity
   8
LEVEL002
 370
30
 100
AcDbLine
   6
CONTINUOUS
  62
7
  10
 318.05000000005
  20
 270.87500000000
  30
0.0
  11
 324.45000000005
  21
 261.27500000000
  31
0.0
   0
LINE
   5
12F
 100
AcDbEntity
   8
LEVEL002
 370
30
 100
AcDbLine
   6
CONTINUOUS
  62
7
  10
 324.45000000005
  20
 261.27500000000
  30
0.0
  11
 319.05000000005
  21
 261.27500000000
  31
0.0
   0
LINE
   5
130
 100
AcDbEntity
   8
LEVEL002
 370
30
 100
AcDbLine
   6
CONTINUOUS
  62
7
  10
 327.15000000005
  20
 261.27500000000
  30
0.0
  11
 320.75000000005
  21
 270.87500000000
  31
0.0
   0
LINE
   5
131
 100
AcDbEntity
   8
LEVEL002
 370
30
 100
AcDbLine
   6
CONTINUOUS
  62
7
  10
 320.75000000005
  20
 270.87500000000
  30
0.0
  11
 327.15000000005
  21
 280.47500000000
  31
0.0
   0
LINE
   5
132
 100
AcDbEntity
   8
LEVEL002
 370
30
 100
AcDbLine
   6
CONTINUOUS
  62
7
  10
 327.15000000005
  20
 280.47500000000
  30
0.0
  11
 332.55000000005
  21
 280.47500000000
  31
0.0
   0
LINE
   5
133
 100
AcDbEntity
   8
LEVEL002
 370
30
 100
AcDbLine
   6
CONTINUOUS
  62
7
  10
 332.55000000005
  20
 280.47500000000
  30
0.0
  11
 326.15000000005
  21
 270.87500000000
  31
0.0
   0
LINE
   5
134
 100
AcDbEntity
   8
LEVEL002
 370
30
 100
AcDbLine
   6
CONTINUOUS
  62
7
  10
 326.15000000005
  20
 270.87500000000
  30
0.0
  11
 332.55000000005
  21
 261.27500000000
  31
0.0
   0
LINE
   5
135
 100
AcDbEntity
   8
LEVEL002
 370
30
 100
AcDbLine
   6
CONTINUOUS
  62
7
  10
 332.55000000005
  20
 261.27500000000
  30
0.0
  11
 327.15000000005
  21
 261.27500000000
  31
0.0
   0
HATCH
   5
136
 100
AcDbEntity
   8
LEVEL001
  62
1
 100
AcDbHatch
  10
0.0
  20
0.0
  30
0.0
 210
0.0
 220
0.0
 230
 1.0000000000000
   2
SOLID
  70
1
  71
1
  91
7
  92
1
  93
6
  72
1
  10
 324.45000000005
  20
 280.47500000000
  11
 318.05000000005
  21
 270.87500000000
  72
1
  10
 318.05000000005
  20
 270.87500000000
  11
 324.45000000005
  21
 261.27500000000
  72
1
  10
 324.45000000005
  20
 261.27500000000
  11
 319.05000000005
  21
 261.27500000000
  72
1
  10
 319.05000000005
  20
 261.27500000000
  11
 312.65000000005
  21
 270.87500000000
  72
1
  10
 312.65000000005
  20
 270.87500000000
  11
 319.05000000005
  21
 280.47500000000
  72
1
  10
 319.05000000005
  20
 280.47500000000
  11
 324.45000000005
  21
 280.47500000000
  97
1
 330

  92
16
  93
6
  72
1
  10
 327.15000000005
  20
 280.47500000000
  11
 332.55000000005
  21
 280.47500000000
  72
1
  10
 332.55000000005
  20
 280.47500000000
  11
 326.15000000005
  21
 270.87500000000
  72
1
  10
 326.15000000005
  20
 270.87500000000
  11
 332.55000000005
  21
 261.27500000000
  72
1
  10
 332.55000000005
  20
 261.27500000000
  11
 327.15000000005
  21
 261.27500000000
  72
1
  10
 327.15000000005
  20
 261.27500000000
  11
 320.75000000005
  21
 270.87500000000
  72
1
  10
 320.75000000005
  20
 270.87500000000
  11
 327.15000000005
  21
 280.47500000000
  97
1
 330

  92
16
  93
3
  72
1
  10
 333.35000000005
  20
 270.87500000000
  11
 328.85000000005
  21
 270.87500000000
  72
1
  10
 328.85000000005
  20
 270.87500000000
  11
 333.35000000005
  21
 263.67500000000
  72
1
  10
 333.35000000005
  20
 263.67500000000
  11
 333.35000000005
  21
 270.87500000000
  97
1
 330

  92
16
  93
6
  72
1
  10
 336.95000000005
  20
 272.07500000000
  11
 344.15000000005
  21
 272.07500000000
  72
2
  10
 344.15000000005
  20
 267.57500000000
  40
 4.5000000000000
  50
 270.00000000000
  51
 90.000000000000
  73
0
  72
1
  10
 344.15000000005
  20
 263.07500000000
  11
 340.55000000005
  21
 263.07500000000
  72
1
  10
 340.55000000005
  20
 263.07500000000
  11
 340.55000000005
  21
 261.27500000000
  72
1
  10
 340.55000000005
  20
 261.27500000000
  11
 336.95000000005
  21
 261.27500000000
  72
1
  10
 336.95000000005
  20
 261.27500000000
  11
 336.95000000005
  21
 272.07500000000
  97
1
 330

  92
16
  93
4
  72
1
  10
 344.15000000005
  20
 268.47500000000
  11
 340.55000000005
  21
 268.47500000000
  72
1
  10
 340.55000000005
  20
 268.47500000000
  11
 340.55000000005
  21
 266.67500000000
  72
1
  10
 340.55000000005
  20
 266.67500000000
  11
 344.15000000005
  21
 266.67500000000
  72
2
  10
 344.15000000005
  20
 267.57500000000
  40
 0.90000000000000
  50
 270.00000000000
  51
 90.000000000000
  73
1
  97
1
 330

  92
16
  93
4
  72
1
  10
 345.95000000005
  20
 261.27500000000
  11
 353.15000000005
  21
 272.07500000000
  72
1
  10
 353.15000000005
  20
 272.07500000000
  11
 358.55000000005
  21
 272.07500000000
  72
1
  10
 358.55000000005
  20
 272.07500000000
  11
 351.35000000005
  21
 261.27500000000
  72
1
  10
 351.35000000005
  20
 261.27500000000
  11
 345.95000000005
  21
 261.27500000000
  97
1
 330

  92
16
  93
3
  72
1
  10
 357.35000000005
  20
 268.11166923470
  11
 352.79222051025
  21
 261.27500000000
  72
1
  10
 352.79222051025
  20
 261.27500000000
  11
 357.35000000005
  21
 261.27500000000
  72
1
  10
 357.35000000005
  20
 261.27500000000
  11
 357.35000000005
  21
 268.11166923470
  97
1
 330

  75
0
  76
1
  98
1
  10
0.0
  20
0.0
   0
HATCH
   5
137
 100
AcDbEntity
   8
LEVEL001
  62
1
 100
AcDbHatch
  10
0.0
  20
0.0
  30
0.0
 210
0.0
 220
0.0
 230
 1.0000000000000
   2
SOLID
  70
1
  71
1
  91
1
  92
1
  93
22
  72
1
  10
 358.55000000005
  20
 272.07500000000
  11
 362.15000000005
  21
 272.07500000000
  72
1
  10
 362.15000000005
  20
 272.07500000000
  11
 362.15000000005
  21
 264.87500000000
  72
1
  10
 362.15000000005
  20
 264.87500000000
  11
 367.55000000005
  21
 264.87500000000
  72
1
  10
 367.55000000005
  20
 264.87500000000
  11
 367.55000000005
  21
 268.47500000000
  72
1
  10
 367.55000000005
  20
 268.47500000000
  11
 363.95000000005
  21
 268.47500000000
  72
1
  10
 363.95000000005
  20
 268.47500000000
  11
 363.95000000005
  21
 272.07500000000
  72
1
  10
 363.95000000005
  20
 272.07500000000
  11
 385.55000000005
  21
 272.07500000000
  72
1
  10
 385.55000000005
  20
 272.07500000000
  11
 385.55000000005
  21
 268.47500000000
  72
1
  10
 385.55000000005
  20
 268.47500000000
  11
 378.35000000005
  21
 268.47500000000
  72
1
  10
 378.35000000005
  20
 268.47500000000
  11
 378.35000000005
  21
 267.57500000000
  72
1
  10
 378.35000000005
  20
 267.57500000000
  11
 384.65000000005
  21
 267.57500000000
  72
1
  10
 384.65000000005
  20
 267.57500000000
  11
 384.65000000005
  21
 265.77500000000
  72
1
  10
 384.65000000005
  20
 265.77500000000
  11
 378.35000000005
  21
 265.77500000000
  72
1
  10
 378.35000000005
  20
 265.77500000000
  11
 378.35000000005
  21
 264.87500000000
  72
1
  10
 378.35000000005
  20
 264.87500000000
  11
 385.55000000005
  21
 264.87500000000
  72
1
  10
 385.55000000005
  20
 264.87500000000
  11
 385.55000000005
  21
 261.27500000000
  72
1
  10
 385.55000000005
  20
 261.27500000000
  11
 374.75000000005
  21
 261.27500000000
  72
1
  10
 374.75000000005
  20
 261.27500000000
  11
 374.75000000005
  21
 268.47500000000
  72
1
  10
 374.75000000005
  20
 268.47500000000
  11
 371.15000000005
  21
 268.47500000000
  72
1
  10
 371.15000000005
  20
 268.47500000000
  11
 371.15000000005
  21
 261.27500000000
  72
1
  10
 371.15000000005
  20
 261.27500000000
  11
 358.55000000005
  21
 261.27500000000
  72
1
  10
 358.55000000005
  20
 261.27500000000
  11
 358.55000000005
  21
 272.07500000000
  97
1
 330

  75
0
  76
1
  98
1
  10
0.0
  20
0.0
   0
HATCH
   5
138
 100
AcDbEntity
   8
LEVEL001
  62
1
 100
AcDbHatch
  10
0.0
  20
0.0
  30
0.0
 210
0.0
 220
0.0
 230
 1.0000000000000
   2
SOLID
  70
1
  71
1
  91
1
  92
1
  93
8
  72
1
  10
 396.35000000005
  20
 272.07500000000
  11
 390.95000000005
  21
 272.07500000000
  72
2
  10
 390.95000000005
  20
 266.67500000000
  40
 5.4000000000000
  50
 90.000000000000
  51
 270.00000000000
  73
1
  72
1
  10
 390.95000000005
  20
 261.27500000000
  11
 396.35000000005
  21
 261.27500000000
  72
1
  10
 396.35000000005
  20
 261.27500000000
  11
 396.35000000005
  21
 264.87500000000
  72
1
  10
 396.35000000005
  20
 264.87500000000
  11
 390.95000000005
  21
 264.87500000000
  72
2
  10
 390.95000000005
  20
 266.67500000000
  40
 1.8000000000000
  50
 90.000000000000
  51
 270.00000000000
  73
0
  72
1
  10
 390.95000000005
  20
 268.47500000000
  11
 396.35000000005
  21
 268.47500000000
  72
1
  10
 396.35000000005
  20
 268.47500000000
  11
 396.35000000005
  21
 272.07500000000
  97
1
 330

  75
0
  76
1
  98
1
  10
0.0
  20
0.0
   0
LINE
   5
139
 100
AcDbEntity
   8
LEVEL002
 370
40
 100
AcDbLine
   6
CONTINUOUS
  62
3
  10
 304.50000000000
  20
 32.000000000001
  30
0.0
  11
 404.50000000000
  21
 32.000000000001
  31
0.0
   0
LINE
   5
13A
 100
AcDbEntity
   8
LEVEL001
 370
40
 100
AcDbLine
   6
CONTINUOUS
  62
3
  10
 304.50000000000
  20
 32.000000000001
  30
0.0
  11
 404.50000000000
  21
 32.000000000001
  31
0.0
   0
LINE
   5
13B
 100
AcDbEntity
   8
LEVEL002
 370
15
 100
AcDbLine
   6
DASHDOT
  62
8
  10
 52.260269619716
  20
 238.75596371057
  30
0.0
  11
 113.07132617546
  21
 238.75596371057
  31
0.0
   0
LINE
   5
13C
 100
AcDbEntity
   8
LEVEL002
 370
15
 100
AcDbLine
   6
DASHDOT
  62
8
  10
 207.64852202924
  20
 238.75596371057
  30
0.0
  11
 268.45957858499
  21
 238.75596371057
  31
0.0
   0
LINE
   5
13D
 100
AcDbEntity
   8
LEVEL002
 370
15
 100
AcDbLine
   6
DASHDOT
  62
8
  10
 52.260269619716
  20
 152.12877088764
  30
0.0
  11
 113.07132617546
  21
 152.12877088764
  31
0.0
   0
LINE
   5
13E
 100
AcDbEntity
   8
LEVEL002
 370
15
 100
AcDbLine
   6
CONTINUOUS
  62
8
  10
 120.11257602389
  20
 226.75596371057
  30
0.0
  11
 120.11257602389
  21
 250.75596371057
  31
0.0
   0
LINE
   5
13F
 100
AcDbEntity
   8
LEVEL002
 370
15
 100
AcDbLine
   6
CONTINUOUS
  62
8
  10
 94.112576023894
  20
 226.75596371057
  30
0.0
  11
 121.11257602389
  21
 226.75596371057
  31
0.0
   0
LINE
   5
140
 100
AcDbEntity
   8
LEVEL002
 370
15
 100
AcDbLine
   6
CONTINUOUS
  62
8
  10
 94.112576023894
  20
 250.75596371057
  30
0.0
  11
 121.11257602389
  21
 250.75596371057
  31
0.0
   0
CIRCLE
   5
141
 100
AcDbEntity
   8
LEVEL002
 370
15
 100
AcDbCircle
   6
CONTINUOUS
  62
8
  10
 120.11257602389
  20
 226.75596371057
  30
0.0
  40
 0.20000000000000
   0
CIRCLE
   5
142
 100
AcDbEntity
   8
LEVEL002
 370
15
 100
AcDbCircle
   6
CONTINUOUS
  62
8
  10
 120.11257602389
  20
 250.75596371057
  30
0.0
  40
 0.20000000000000
   0
LINE
   5
143
 100
AcDbEntity
   8
LEVEL002
 370
15
 100
AcDbLine
   6
CONTINUOUS
  62
8
  10
 95.112576023894
  20
 216.75596371057
  30
0.0
  11
 105.11257602389
  21
 216.75596371057
  31
0.0
   0
LINE
   5
144
 100
AcDbEntity
   8
LEVEL002
 370
15
 100
AcDbLine
   6
CONTINUOUS
  62
8
  10
 95.112576023894
  20
 233.00596371057
  30
0.0
  11
 95.112576023894
  21
 215.75596371057
  31
0.0
   0
LINE
   5
145
 100
AcDbEntity
   8
LEVEL002
 370
15
 100
AcDbLine
   6
CONTINUOUS
  62
8
  10
 105.11257602389
  20
 237.75596371057
  30
0.0
  11
 105.11257602389
  21
 215.75596371057
  31
0.0
   0
CIRCLE
   5
146
 100
AcDbEntity
   8
LEVEL002
 370
15
 100
AcDbCircle
   6
CONTINUOUS
  62
8
  10
 95.112576023894
  20
 216.75596371057
  30
0.0
  40
 0.20000000000000
   0
CIRCLE
   5
147
 100
AcDbEntity
   8
LEVEL002
 370
15
 100
AcDbCircle
   6
CONTINUOUS
  62
8
  10
 105.11257602389
  20
 216.75596371057
  30
0.0
  40
 0.20000000000000
   0
LINE
   5
148
 100
AcDbEntity
   8
LEVEL002
 370
15
 100
AcDbLine
   6
CONTINUOUS
  62
8
  10
 60.112576023894
  20
 206.75596371057
  30
0.0
  11
 105.11257602389
  21
 206.75596371057
  31
0.0
   0
LINE
   5
149
 100
AcDbEntity
   8
LEVEL002
 370
15
 100
AcDbLine
   6
CONTINUOUS
  62
8
  10
 60.112576023894
  20
 225.75596371057
  30
0.0
  11
 60.112576023894
  21
 205.75596371057
  31
0.0
   0
LINE
   5
14A
 100
AcDbEntity
   8
LEVEL002
 370
15
 100
AcDbLine
   6
CONTINUOUS
  62
8
  10
 105.11257602389
  20
 215.75596371057
  30
0.0
  11
 105.11257602389
  21
 205.75596371057
  31
0.0
   0
CIRCLE
   5
14B
 100
AcDbEntity
   8
LEVEL002
 370
15
 100
AcDbCircle
   6
CONTINUOUS
  62
8
  10
 60.112576023894
  20
 206.75596371057
  30
0.0
  40
 0.20000000000000
   0
CIRCLE
   5
14C
 100
AcDbEntity
   8
LEVEL002
 370
15
 100
AcDbCircle
   6
CONTINUOUS
  62
8
  10
 105.11257602389
  20
 206.75596371057
  30
0.0
  40
 0.20000000000000
   0
LINE
   5
14D
 100
AcDbEntity
   8
LEVEL002
 370
15
 100
AcDbLine
   6
CONTINUOUS
  62
8
  10
 50.112576023894
  20
 234.00596371057
  30
0.0
  11
 50.112576023894
  21
 243.50596371057
  31
0.0
   0
LINE
   5
14E
 100
AcDbEntity
   8
LEVEL002
 370
15
 100
AcDbLine
   6
CONTINUOUS
  62
8
  10
 59.112576023894
  20
 234.00596371057
  30
0.0
  11
 49.112576023894
  21
 234.00596371057
  31
0.0
   0
LINE
   5
14F
 100
AcDbEntity
   8
LEVEL002
 370
15
 100
AcDbLine
   6
CONTINUOUS
  62
8
  10
 59.112576023894
  20
 243.50596371057
  30
0.0
  11
 49.112576023894
  21
 243.50596371057
  31
0.0
   0
CIRCLE
   5
150
 100
AcDbEntity
   8
LEVEL002
 370
15
 100
AcDbCircle
   6
CONTINUOUS
  62
8
  10
 50.112576023894
  20
 234.00596371057
  30
0.0
  40
 0.20000000000000
   0
CIRCLE
   5
151
 100
AcDbEntity
   8
LEVEL002
 370
15
 100
AcDbCircle
   6
CONTINUOUS
  62
8
  10
 50.112576023894
  20
 243.50596371057
  30
0.0
  40
 0.20000000000000
   0
LINE
   5
152
 100
AcDbEntity
   8
LEVEL002
 370
15
 100
AcDbLine
   6
CONTINUOUS
  62
8
  10
 275.50082843342
  20
 224.75596371057
  30
0.0
  11
 275.50082843342
  21
 252.75596371057
  31
0.0
   0
LINE
   5
153
 100
AcDbEntity
   8
LEVEL002
 370
15
 100
AcDbLine
   6
CONTINUOUS
  62
8
  10
 247.50082843342
  20
 224.75596371057
  30
0.0
  11
 276.50082843342
  21
 224.75596371057
  31
0.0
   0
LINE
   5
154
 100
AcDbEntity
   8
LEVEL002
 370
15
 100
AcDbLine
   6
CONTINUOUS
  62
8
  10
 247.50082843342
  20
 252.75596371057
  30
0.0
  11
 276.50082843342
  21
 252.75596371057
  31
0.0
   0
CIRCLE
   5
155
 100
AcDbEntity
   8
LEVEL002
 370
15
 100
AcDbCircle
   6
CONTINUOUS
  62
8
  10
 275.50082843342
  20
 224.75596371057
  30
0.0
  40
 0.20000000000000
   0
CIRCLE
   5
156
 100
AcDbEntity
   8
LEVEL002
 370
15
 100
AcDbCircle
   6
CONTINUOUS
  62
8
  10
 275.50082843342
  20
 252.75596371057
  30
0.0
  40
 0.20000000000000
   0
LINE
   5
157
 100
AcDbEntity
   8
LEVEL002
 370
15
 100
AcDbLine
   6
CONTINUOUS
  62
8
  10
 250.50082843342
  20
 214.75596371057
  30
0.0
  11
 260.50082843342
  21
 214.75596371057
  31
0.0
   0
LINE
   5
158
 100
AcDbEntity
   8
LEVEL002
 370
15
 100
AcDbLine
   6
CONTINUOUS
  62
8
  10
 250.50082843342
  20
 233.00596371057
  30
0.0
  11
 250.50082843342
  21
 213.75596371057
  31
0.0
   0
LINE
   5
159
 100
AcDbEntity
   8
LEVEL002
 370
15
 100
AcDbLine
   6
CONTINUOUS
  62
8
  10
 260.50082843342
  20
 237.75596371057
  30
0.0
  11
 260.50082843342
  21
 213.75596371057
  31
0.0
   0
CIRCLE
   5
15A
 100
AcDbEntity
   8
LEVEL002
 370
15
 100
AcDbCircle
   6
CONTINUOUS
  62
8
  10
 250.50082843342
  20
 214.75596371057
  30
0.0
  40
 0.20000000000000
   0
CIRCLE
   5
15B
 100
AcDbEntity
   8
LEVEL002
 370
15
 100
AcDbCircle
   6
CONTINUOUS
  62
8
  10
 260.50082843342
  20
 214.75596371057
  30
0.0
  40
 0.20000000000000
   0
LINE
   5
15C
 100
AcDbEntity
   8
LEVEL002
 370
15
 100
AcDbLine
   6
CONTINUOUS
  62
8
  10
 205.50082843342
  20
 232.50596371057
  30
0.0
  11
 205.50082843342
  21
 245.00596371057
  31
0.0
   0
LINE
   5
15D
 100
AcDbEntity
   8
LEVEL002
 370
15
 100
AcDbLine
   6
CONTINUOUS
  62
8
  10
 214.50082843342
  20
 232.50596371057
  30
0.0
  11
 204.50082843342
  21
 232.50596371057
  31
0.0
   0
LINE
   5
15E
 100
AcDbEntity
   8
LEVEL002
 370
15
 100
AcDbLine
   6
CONTINUOUS
  62
8
  10
 214.50082843342
  20
 245.00596371057
  30
0.0
  11
 204.50082843342
  21
 245.00596371057
  31
0.0
   0
CIRCLE
   5
15F
 100
AcDbEntity
   8
LEVEL002
 370
15
 100
AcDbCircle
   6
CONTINUOUS
  62
8
  10
 205.50082843342
  20
 232.50596371057
  30
0.0
  40
 0.20000000000000
   0
CIRCLE
   5
160
 100
AcDbEntity
   8
LEVEL002
 370
15
 100
AcDbCircle
   6
CONTINUOUS
  62
8
  10
 205.50082843342
  20
 245.00596371057
  30
0.0
  40
 0.20000000000000
   0
LINE
   5
161
 100
AcDbEntity
   8
LEVEL002
 370
15
 100
AcDbLine
   6
CONTINUOUS
  62
8
  10
 215.50082843342
  20
 204.75596371057
  30
0.0
  11
 260.50082843342
  21
 204.75596371057
  31
0.0
   0
LINE
   5
162
 100
AcDbEntity
   8
LEVEL002
 370
15
 100
AcDbLine
   6
CONTINUOUS
  62
8
  10
 215.50082843342
  20
 224.75596371057
  30
0.0
  11
 215.50082843342
  21
 203.75596371057
  31
0.0
   0
LINE
   5
163
 100
AcDbEntity
   8
LEVEL002
 370
15
 100
AcDbLine
   6
CONTINUOUS
  62
8
  10
 260.50082843342
  20
 215.75596371057
  30
0.0
  11
 260.50082843342
  21
 203.75596371057
  31
0.0
   0
CIRCLE
   5
164
 100
AcDbEntity
   8
LEVEL002
 370
15
 100
AcDbCircle
   6
CONTINUOUS
  62
8
  10
 215.50082843342
  20
 204.75596371057
  30
0.0
  40
 0.20000000000000
   0
CIRCLE
   5
165
 100
AcDbEntity
   8
LEVEL002
 370
15
 100
AcDbCircle
   6
CONTINUOUS
  62
8
  10
 260.50082843342
  20
 204.75596371057
  30
0.0
  40
 0.20000000000000
   0
LINE
   5
166
 100
AcDbEntity
   8
LEVEL002
 370
15
 100
AcDbLine
   6
CONTINUOUS
  62
8
  10
 120.11257602389
  20
 136.12877088764
  30
0.0
  11
 120.11257602389
  21
 168.12877088764
  31
0.0
   0
LINE
   5
167
 100
AcDbEntity
   8
LEVEL002
 370
15
 100
AcDbLine
   6
CONTINUOUS
  62
8
  10
 90.112576023894
  20
 136.12877088764
  30
0.0
  11
 121.11257602389
  21
 136.12877088764
  31
0.0
   0
LINE
   5
168
 100
AcDbEntity
   8
LEVEL002
 370
15
 100
AcDbLine
   6
CONTINUOUS
  62
8
  10
 90.112576023894
  20
 168.12877088764
  30
0.0
  11
 121.11257602389
  21
 168.12877088764
  31
0.0
   0
CIRCLE
   5
169
 100
AcDbEntity
   8
LEVEL002
 370
15
 100
AcDbCircle
   6
CONTINUOUS
  62
8
  10
 120.11257602389
  20
 136.12877088764
  30
0.0
  40
 0.20000000000000
   0
CIRCLE
   5
16A
 100
AcDbEntity
   8
LEVEL002
 370
15
 100
AcDbCircle
   6
CONTINUOUS
  62
8
  10
 120.11257602389
  20
 168.12877088764
  30
0.0
  40
 0.20000000000000
   0
LINE
   5
16B
 100
AcDbEntity
   8
LEVEL002
 370
15
 100
AcDbLine
   6
CONTINUOUS
  62
8
  10
 95.112576023894
  20
 126.12877088764
  30
0.0
  11
 105.11257602389
  21
 126.12877088764
  31
0.0
   0
LINE
   5
16C
 100
AcDbEntity
   8
LEVEL002
 370
15
 100
AcDbLine
   6
CONTINUOUS
  62
8
  10
 95.112576023894
  20
 146.37877088764
  30
0.0
  11
 95.112576023894
  21
 125.12877088764
  31
0.0
   0
LINE
   5
16D
 100
AcDbEntity
   8
LEVEL002
 370
15
 100
AcDbLine
   6
CONTINUOUS
  62
8
  10
 105.11257602389
  20
 151.12877088764
  30
0.0
  11
 105.11257602389
  21
 125.12877088764
  31
0.0
   0
CIRCLE
   5
16E
 100
AcDbEntity
   8
LEVEL002
 370
15
 100
AcDbCircle
   6
CONTINUOUS
  62
8
  10
 95.112576023894
  20
 126.12877088764
  30
0.0
  40
 0.20000000000000
   0
CIRCLE
   5
16F
 100
AcDbEntity
   8
LEVEL002
 370
15
 100
AcDbCircle
   6
CONTINUOUS
  62
8
  10
 105.11257602389
  20
 126.12877088764
  30
0.0
  40
 0.20000000000000
   0
LINE
   5
170
 100
AcDbEntity
   8
LEVEL002
 370
15
 100
AcDbLine
   6
CONTINUOUS
  62
8
  10
 50.112576023894
  20
 144.37877088764
  30
0.0
  11
 50.112576023894
  21
 159.87877088764
  31
0.0
   0
LINE
   5
171
 100
AcDbEntity
   8
LEVEL002
 370
15
 100
AcDbLine
   6
CONTINUOUS
  62
8
  10
 59.112576023894
  20
 144.37877088764
  30
0.0
  11
 49.112576023894
  21
 144.37877088764
  31
0.0
   0
LINE
   5
172
 100
AcDbEntity
   8
LEVEL002
 370
15
 100
AcDbLine
   6
CONTINUOUS
  62
8
  10
 59.112576023894
  20
 159.87877088764
  30
0.0
  11
 49.112576023894
  21
 159.87877088764
  31
0.0
   0
CIRCLE
   5
173
 100
AcDbEntity
   8
LEVEL002
 370
15
 100
AcDbCircle
   6
CONTINUOUS
  62
8
  10
 50.112576023894
  20
 144.37877088764
  30
0.0
  40
 0.20000000000000
   0
CIRCLE
   5
174
 100
AcDbEntity
   8
LEVEL002
 370
15
 100
AcDbCircle
   6
CONTINUOUS
  62
8
  10
 50.112576023894
  20
 159.87877088764
  30
0.0
  40
 0.20000000000000
   0
LINE
   5
175
 100
AcDbEntity
   8
LEVEL002
 370
15
 100
AcDbLine
   6
CONTINUOUS
  62
8
  10
 60.112576023894
  20
 116.12877088764
  30
0.0
  11
 105.11257602389
  21
 116.12877088764
  31
0.0
   0
LINE
   5
176
 100
AcDbEntity
   8
LEVEL002
 370
15
 100
AcDbLine
   6
CONTINUOUS
  62
8
  10
 60.112576023894
  20
 135.12877088764
  30
0.0
  11
 60.112576023894
  21
 115.12877088764
  31
0.0
   0
LINE
   5
177
 100
AcDbEntity
   8
LEVEL002
 370
15
 100
AcDbLine
   6
CONTINUOUS
  62
8
  10
 105.11257602389
  20
 129.12877088764
  30
0.0
  11
 105.11257602389
  21
 115.12877088764
  31
0.0
   0
CIRCLE
   5
178
 100
AcDbEntity
   8
LEVEL002
 370
15
 100
AcDbCircle
   6
CONTINUOUS
  62
8
  10
 60.112576023894
  20
 116.12877088764
  30
0.0
  40
 0.20000000000000
   0
CIRCLE
   5
179
 100
AcDbEntity
   8
LEVEL002
 370
15
 100
AcDbCircle
   6
CONTINUOUS
  62
8
  10
 105.11257602389
  20
 116.12877088764
  30
0.0
  40
 0.20000000000000
   0
LINE
   5
17A
 100
AcDbEntity
   8
LEVEL001
 370
15
 100
AcDbLine
   6
DASHDOT
  62
8
  10
 52.260269619716
  20
 238.75596371057
  30
0.0
  11
 113.07132617546
  21
 238.75596371057
  31
0.0
   0
LINE
   5
17B
 100
AcDbEntity
   8
LEVEL001
 370
15
 100
AcDbLine
   6
DASHDOT
  62
8
  10
 207.64852202924
  20
 238.75596371057
  30
0.0
  11
 268.45957858499
  21
 238.75596371057
  31
0.0
   0
LINE
   5
17C
 100
AcDbEntity
   8
LEVEL001
 370
15
 100
AcDbLine
   6
DASHDOT
  62
8
  10
 52.260269619716
  20
 152.12877088764
  30
0.0
  11
 113.07132617546
  21
 152.12877088764
  31
0.0
   0
LINE
   5
17D
 100
AcDbEntity
   8
LEVEL001
 370
15
 100
AcDbLine
   6
CONTINUOUS
  62
8
  10
 120.11257602389
  20
 226.75596371057
  30
0.0
  11
 120.11257602389
  21
 250.75596371057
  31
0.0
   0
LINE
   5
17E
 100
AcDbEntity
   8
LEVEL001
 370
15
 100
AcDbLine
   6
CONTINUOUS
  62
8
  10
 94.112576023894
  20
 226.75596371057
  30
0.0
  11
 121.11257602389
  21
 226.75596371057
  31
0.0
   0
LINE
   5
17F
 100
AcDbEntity
   8
LEVEL001
 370
15
 100
AcDbLine
   6
CONTINUOUS
  62
8
  10
 94.112576023894
  20
 250.75596371057
  30
0.0
  11
 121.11257602389
  21
 250.75596371057
  31
0.0
   0
CIRCLE
   5
180
 100
AcDbEntity
   8
LEVEL001
 370
15
 100
AcDbCircle
   6
CONTINUOUS
  62
8
  10
 120.11257602389
  20
 226.75596371057
  30
0.0
  40
 0.20000000000000
   0
CIRCLE
   5
181
 100
AcDbEntity
   8
LEVEL001
 370
15
 100
AcDbCircle
   6
CONTINUOUS
  62
8
  10
 120.11257602389
  20
 250.75596371057
  30
0.0
  40
 0.20000000000000
   0
LINE
   5
182
 100
AcDbEntity
   8
LEVEL001
 370
15
 100
AcDbLine
   6
CONTINUOUS
  62
8
  10
 95.112576023894
  20
 216.75596371057
  30
0.0
  11
 105.11257602389
  21
 216.75596371057
  31
0.0
   0
LINE
   5
183
 100
AcDbEntity
   8
LEVEL001
 370
15
 100
AcDbLine
   6
CONTINUOUS
  62
8
  10
 95.112576023894
  20
 233.00596371057
  30
0.0
  11
 95.112576023894
  21
 215.75596371057
  31
0.0
   0
LINE
   5
184
 100
AcDbEntity
   8
LEVEL001
 370
15
 100
AcDbLine
   6
CONTINUOUS
  62
8
  10
 105.11257602389
  20
 237.75596371057
  30
0.0
  11
 105.11257602389
  21
 215.75596371057
  31
0.0
   0
CIRCLE
   5
185
 100
AcDbEntity
   8
LEVEL001
 370
15
 100
AcDbCircle
   6
CONTINUOUS
  62
8
  10
 95.112576023894
  20
 216.75596371057
  30
0.0
  40
 0.20000000000000
   0
CIRCLE
   5
186
 100
AcDbEntity
   8
LEVEL001
 370
15
 100
AcDbCircle
   6
CONTINUOUS
  62
8
  10
 105.11257602389
  20
 216.75596371057
  30
0.0
  40
 0.20000000000000
   0
LINE
   5
187
 100
AcDbEntity
   8
LEVEL001
 370
15
 100
AcDbLine
   6
CONTINUOUS
  62
8
  10
 60.112576023894
  20
 206.75596371057
  30
0.0
  11
 105.11257602389
  21
 206.75596371057
  31
0.0
   0
LINE
   5
188
 100
AcDbEntity
   8
LEVEL001
 370
15
 100
AcDbLine
   6
CONTINUOUS
  62
8
  10
 60.112576023894
  20
 225.75596371057
  30
0.0
  11
 60.112576023894
  21
 205.75596371057
  31
0.0
   0
LINE
   5
189
 100
AcDbEntity
   8
LEVEL001
 370
15
 100
AcDbLine
   6
CONTINUOUS
  62
8
  10
 105.11257602389
  20
 215.75596371057
  30
0.0
  11
 105.11257602389
  21
 205.75596371057
  31
0.0
   0
CIRCLE
   5
18A
 100
AcDbEntity
   8
LEVEL001
 370
15
 100
AcDbCircle
   6
CONTINUOUS
  62
8
  10
 60.112576023894
  20
 206.75596371057
  30
0.0
  40
 0.20000000000000
   0
CIRCLE
   5
18B
 100
AcDbEntity
   8
LEVEL001
 370
15
 100
AcDbCircle
   6
CONTINUOUS
  62
8
  10
 105.11257602389
  20
 206.75596371057
  30
0.0
  40
 0.20000000000000
   0
LINE
   5
18C
 100
AcDbEntity
   8
LEVEL001
 370
15
 100
AcDbLine
   6
CONTINUOUS
  62
8
  10
 50.112576023894
  20
 234.00596371057
  30
0.0
  11
 50.112576023894
  21
 243.50596371057
  31
0.0
   0
LINE
   5
18D
 100
AcDbEntity
   8
LEVEL001
 370
15
 100
AcDbLine
   6
CONTINUOUS
  62
8
  10
 59.112576023894
  20
 234.00596371057
  30
0.0
  11
 49.112576023894
  21
 234.00596371057
  31
0.0
   0
LINE
   5
18E
 100
AcDbEntity
   8
LEVEL001
 370
15
 100
AcDbLine
   6
CONTINUOUS
  62
8
  10
 59.112576023894
  20
 243.50596371057
  30
0.0
  11
 49.112576023894
  21
 243.50596371057
  31
0.0
   0
CIRCLE
   5
18F
 100
AcDbEntity
   8
LEVEL001
 370
15
 100
AcDbCircle
   6
CONTINUOUS
  62
8
  10
 50.112576023894
  20
 234.00596371057
  30
0.0
  40
 0.20000000000000
   0
CIRCLE
   5
190
 100
AcDbEntity
   8
LEVEL001
 370
15
 100
AcDbCircle
   6
CONTINUOUS
  62
8
  10
 50.112576023894
  20
 243.50596371057
  30
0.0
  40
 0.20000000000000
   0
LINE
   5
191
 100
AcDbEntity
   8
LEVEL001
 370
15
 100
AcDbLine
   6
CONTINUOUS
  62
8
  10
 275.50082843342
  20
 224.75596371057
  30
0.0
  11
 275.50082843342
  21
 252.75596371057
  31
0.0
   0
LINE
   5
192
 100
AcDbEntity
   8
LEVEL001
 370
15
 100
AcDbLine
   6
CONTINUOUS
  62
8
  10
 247.50082843342
  20
 224.75596371057
  30
0.0
  11
 276.50082843342
  21
 224.75596371057
  31
0.0
   0
LINE
   5
193
 100
AcDbEntity
   8
LEVEL001
 370
15
 100
AcDbLine
   6
CONTINUOUS
  62
8
  10
 247.50082843342
  20
 252.75596371057
  30
0.0
  11
 276.50082843342
  21
 252.75596371057
  31
0.0
   0
CIRCLE
   5
194
 100
AcDbEntity
   8
LEVEL001
 370
15
 100
AcDbCircle
   6
CONTINUOUS
  62
8
  10
 275.50082843342
  20
 224.75596371057
  30
0.0
  40
 0.20000000000000
   0
CIRCLE
   5
195
 100
AcDbEntity
   8
LEVEL001
 370
15
 100
AcDbCircle
   6
CONTINUOUS
  62
8
  10
 275.50082843342
  20
 252.75596371057
  30
0.0
  40
 0.20000000000000
   0
LINE
   5
196
 100
AcDbEntity
   8
LEVEL001
 370
15
 100
AcDbLine
   6
CONTINUOUS
  62
8
  10
 250.50082843342
  20
 214.75596371057
  30
0.0
  11
 260.50082843342
  21
 214.75596371057
  31
0.0
   0
LINE
   5
197
 100
AcDbEntity
   8
LEVEL001
 370
15
 100
AcDbLine
   6
CONTINUOUS
  62
8
  10
 250.50082843342
  20
 233.00596371057
  30
0.0
  11
 250.50082843342
  21
 213.75596371057
  31
0.0
   0
LINE
   5
198
 100
AcDbEntity
   8
LEVEL001
 370
15
 100
AcDbLine
   6
CONTINUOUS
  62
8
  10
 260.50082843342
  20
 237.75596371057
  30
0.0
  11
 260.50082843342
  21
 213.75596371057
  31
0.0
   0
CIRCLE
   5
199
 100
AcDbEntity
   8
LEVEL001
 370
15
 100
AcDbCircle
   6
CONTINUOUS
  62
8
  10
 250.50082843342
  20
 214.75596371057
  30
0.0
  40
 0.20000000000000
   0
CIRCLE
   5
19A
 100
AcDbEntity
   8
LEVEL001
 370
15
 100
AcDbCircle
   6
CONTINUOUS
  62
8
  10
 260.50082843342
  20
 214.75596371057
  30
0.0
  40
 0.20000000000000
   0
LINE
   5
19B
 100
AcDbEntity
   8
LEVEL001
 370
15
 100
AcDbLine
   6
CONTINUOUS
  62
8
  10
 205.50082843342
  20
 232.50596371057
  30
0.0
  11
 205.50082843342
  21
 245.00596371057
  31
0.0
   0
LINE
   5
19C
 100
AcDbEntity
   8
LEVEL001
 370
15
 100
AcDbLine
   6
CONTINUOUS
  62
8
  10
 214.50082843342
  20
 232.50596371057
  30
0.0
  11
 204.50082843342
  21
 232.50596371057
  31
0.0
   0
LINE
   5
19D
 100
AcDbEntity
   8
LEVEL001
 370
15
 100
AcDbLine
   6
CONTINUOUS
  62
8
  10
 214.50082843342
  20
 245.00596371057
  30
0.0
  11
 204.50082843342
  21
 245.00596371057
  31
0.0
   0
CIRCLE
   5
19E
 100
AcDbEntity
   8
LEVEL001
 370
15
 100
AcDbCircle
   6
CONTINUOUS
  62
8
  10
 205.50082843342
  20
 232.50596371057
  30
0.0
  40
 0.20000000000000
   0
CIRCLE
   5
19F
 100
AcDbEntity
   8
LEVEL001
 370
15
 100
AcDbCircle
   6
CONTINUOUS
  62
8
  10
 205.50082843342
  20
 245.00596371057
  30
0.0
  40
 0.20000000000000
   0
LINE
   5
1A0
 100
AcDbEntity
   8
LEVEL001
 370
15
 100
AcDbLine
   6
CONTINUOUS
  62
8
  10
 215.50082843342
  20
 204.75596371057
  30
0.0
  11
 260.50082843342
  21
 204.75596371057
  31
0.0
   0
LINE
   5
1A1
 100
AcDbEntity
   8
LEVEL001
 370
15
 100
AcDbLine
   6
CONTINUOUS
  62
8
  10
 215.50082843342
  20
 224.75596371057
  30
0.0
  11
 215.50082843342
  21
 203.75596371057
  31
0.0
   0
LINE
   5
1A2
 100
AcDbEntity
   8
LEVEL001
 370
15
 100
AcDbLine
   6
CONTINUOUS
  62
8
  10
 260.50082843342
  20
 215.75596371057
  30
0.0
  11
 260.50082843342
  21
 203.75596371057
  31
0.0
   0
CIRCLE
   5
1A3
 100
AcDbEntity
   8
LEVEL001
 370
15
 100
AcDbCircle
   6
CONTINUOUS
  62
8
  10
 215.50082843342
  20
 204.75596371057
  30
0.0
  40
 0.20000000000000
   0
CIRCLE
   5
1A4
 100
AcDbEntity
   8
LEVEL001
 370
15
 100
AcDbCircle
   6
CONTINUOUS
  62
8
  10
 260.50082843342
  20
 204.75596371057
  30
0.0
  40
 0.20000000000000
   0
LINE
   5
1A5
 100
AcDbEntity
   8
LEVEL001
 370
15
 100
AcDbLine
   6
CONTINUOUS
  62
8
  10
 120.11257602389
  20
 136.12877088764
  30
0.0
  11
 120.11257602389
  21
 168.12877088764
  31
0.0
   0
LINE
   5
1A6
 100
AcDbEntity
   8
LEVEL001
 370
15
 100
AcDbLine
   6
CONTINUOUS
  62
8
  10
 90.112576023894
  20
 136.12877088764
  30
0.0
  11
 121.11257602389
  21
 136.12877088764
  31
0.0
   0
LINE
   5
1A7
 100
AcDbEntity
   8
LEVEL001
 370
15
 100
AcDbLine
   6
CONTINUOUS
  62
8
  10
 90.112576023894
  20
 168.12877088764
  30
0.0
  11
 121.11257602389
  21
 168.12877088764
  31
0.0
   0
CIRCLE
   5
1A8
 100
AcDbEntity
   8
LEVEL001
 370
15
 100
AcDbCircle
   6
CONTINUOUS
  62
8
  10
 120.11257602389
  20
 136.12877088764
  30
0.0
  40
 0.20000000000000
   0
CIRCLE
   5
1A9
 100
AcDbEntity
   8
LEVEL001
 370
15
 100
AcDbCircle
   6
CONTINUOUS
  62
8
  10
 120.11257602389
  20
 168.12877088764
  30
0.0
  40
 0.20000000000000
   0
LINE
   5
1AA
 100
AcDbEntity
   8
LEVEL001
 370
15
 100
AcDbLine
   6
CONTINUOUS
  62
8
  10
 95.112576023894
  20
 126.12877088764
  30
0.0
  11
 105.11257602389
  21
 126.12877088764
  31
0.0
   0
LINE
   5
1AB
 100
AcDbEntity
   8
LEVEL001
 370
15
 100
AcDbLine
   6
CONTINUOUS
  62
8
  10
 95.112576023894
  20
 146.37877088764
  30
0.0
  11
 95.112576023894
  21
 125.12877088764
  31
0.0
   0
LINE
   5
1AC
 100
AcDbEntity
   8
LEVEL001
 370
15
 100
AcDbLine
   6
CONTINUOUS
  62
8
  10
 105.11257602389
  20
 151.12877088764
  30
0.0
  11
 105.11257602389
  21
 125.12877088764
  31
0.0
   0
CIRCLE
   5
1AD
 100
AcDbEntity
   8
LEVEL001
 370
15
 100
AcDbCircle
   6
CONTINUOUS
  62
8
  10
 95.112576023894
  20
 126.12877088764
  30
0.0
  40
 0.20000000000000
   0
CIRCLE
   5
1AE
 100
AcDbEntity
   8
LEVEL001
 370
15
 100
AcDbCircle
   6
CONTINUOUS
  62
8
  10
 105.11257602389
  20
 126.12877088764
  30
0.0
  40
 0.20000000000000
   0
LINE
   5
1AF
 100
AcDbEntity
   8
LEVEL001
 370
15
 100
AcDbLine
   6
CONTINUOUS
  62
8
  10
 50.112576023894
  20
 144.37877088764
  30
0.0
  11
 50.112576023894
  21
 159.87877088764
  31
0.0
   0
LINE
   5
1B0
 100
AcDbEntity
   8
LEVEL001
 370
15
 100
AcDbLine
   6
CONTINUOUS
  62
8
  10
 59.112576023894
  20
 144.37877088764
  30
0.0
  11
 49.112576023894
  21
 144.37877088764
  31
0.0
   0
LINE
   5
1B1
 100
AcDbEntity
   8
LEVEL001
 370
15
 100
AcDbLine
   6
CONTINUOUS
  62
8
  10
 59.112576023894
  20
 159.87877088764
  30
0.0
  11
 49.112576023894
  21
 159.87877088764
  31
0.0
   0
CIRCLE
   5
1B2
 100
AcDbEntity
   8
LEVEL001
 370
15
 100
AcDbCircle
   6
CONTINUOUS
  62
8
  10
 50.112576023894
  20
 144.37877088764
  30
0.0
  40
 0.20000000000000
   0
CIRCLE
   5
1B3
 100
AcDbEntity
   8
LEVEL001
 370
15
 100
AcDbCircle
   6
CONTINUOUS
  62
8
  10
 50.112576023894
  20
 159.87877088764
  30
0.0
  40
 0.20000000000000
   0
LINE
   5
1B4
 100
AcDbEntity
   8
LEVEL001
 370
15
 100
AcDbLine
   6
CONTINUOUS
  62
8
  10
 60.112576023894
  20
 116.12877088764
  30
0.0
  11
 105.11257602389
  21
 116.12877088764
  31
0.0
   0
LINE
   5
1B5
 100
AcDbEntity
   8
LEVEL001
 370
15
 100
AcDbLine
   6
CONTINUOUS
  62
8
  10
 60.112576023894
  20
 135.12877088764
  30
0.0
  11
 60.112576023894
  21
 115.12877088764
  31
0.0
   0
LINE
   5
1B6
 100
AcDbEntity
   8
LEVEL001
 370
15
 100
AcDbLine
   6
CONTINUOUS
  62
8
  10
 105.11257602389
  20
 129.12877088764
  30
0.0
  11
 105.11257602389
  21
 115.12877088764
  31
0.0
   0
CIRCLE
   5
1B7
 100
AcDbEntity
   8
LEVEL001
 370
15
 100
AcDbCircle
   6
CONTINUOUS
  62
8
  10
 60.112576023894
  20
 116.12877088764
  30
0.0
  40
 0.20000000000000
   0
CIRCLE
   5
1B8
 100
AcDbEntity
   8
LEVEL001
 370
15
 100
AcDbCircle
   6
CONTINUOUS
  62
8
  10
 105.11257602389
  20
 116.12877088764
  30
0.0
  40
 0.20000000000000
   0
LINE
   5
1B9
 100
AcDbEntity
   8
LEVEL002
 370
50
 100
AcDbLine
   6
CONTINUOUS
  62
4
  10
 15.499999999998
  20
 12.000000000001
  30
0.0
  11
 404.50000000000
  21
 12.000000000001
  31
0.0
   0
LINE
   5
1BA
 100
AcDbEntity
   8
LEVEL002
 370
50
 100
AcDbLine
   6
CONTINUOUS
  62
4
  10
 404.50000000000
  20
 12.000000000001
  30
0.0
  11
 404.50000000000
  21
 285.00000000000
  31
0.0
   0
LINE
   5
1BB
 100
AcDbEntity
   8
LEVEL001
 370
50
 100
AcDbLine
   6
CONTINUOUS
  62
4
  10
 15.499999999998
  20
 12.000000000001
  30
0.0
  11
 404.50000000000
  21
 12.000000000001
  31
0.0
   0
LINE
   5
1BC
 100
AcDbEntity
   8
LEVEL001
 370
50
 100
AcDbLine
   6
CONTINUOUS
  62
4
  10
 404.50000000000
  20
 12.000000000001
  30
0.0
  11
 404.50000000000
  21
 285.00000000000
  31
0.0
   0
LINE
   5
1BD
 100
AcDbEntity
   8
LEVEL002
 370
50
 100
AcDbLine
   6
CONTINUOUS
  62
4
  10
 404.50000000000
  20
 285.00000000000
  30
0.0
  11
 15.499999999998
  21
 285.00000000000
  31
0.0
   0
LINE
   5
1BE
 100
AcDbEntity
   8
LEVEL002
 370
50
 100
AcDbLine
   6
CONTINUOUS
  62
4
  10
 15.499999999998
  20
 285.00000000000
  30
0.0
  11
 15.499999999998
  21
 12.000000000001
  31
0.0
   0
LINE
   5
1BF
 100
AcDbEntity
   8
LEVEL001
 370
50
 100
AcDbLine
   6
CONTINUOUS
  62
4
  10
 404.50000000000
  20
 285.00000000000
  30
0.0
  11
 15.499999999998
  21
 285.00000000000
  31
0.0
   0
LINE
   5
1C0
 100
AcDbEntity
   8
LEVEL001
 370
50
 100
AcDbLine
   6
CONTINUOUS
  62
4
  10
 15.499999999998
  20
 285.00000000000
  30
0.0
  11
 15.499999999998
  21
 12.000000000001
  31
0.0
   0
LINE
   5
1C1
 100
AcDbEntity
   8
LEVEL001
 370
30
 100
AcDbLine
   6
DOT
  62
7
  10
 420.00000000000
  20
 297.00000000000
  30
0.0
  11
0.0
  21
 297.00000000000
  31
0.0
   0
LINE
   5
1C2
 100
AcDbEntity
   8
LEVEL001
 370
30
 100
AcDbLine
   6
DOT
  62
7
  10
 420.00000000000
  20
 297.00000000000
  30
0.0
  11
0.0
  21
 297.00000000000
  31
0.0
   0
LINE
   5
1C3
 100
AcDbEntity
   8
LEVEL001
 370
30
 100
AcDbLine
   6
DOT
  62
7
  10
0.0
  20
 297.00000000000
  30
0.0
  11
0.0
  21
0.0
  31
0.0
   0
LINE
   5
1C4
 100
AcDbEntity
   8
LEVEL001
 370
30
 100
AcDbLine
   6
DOT
  62
7
  10
0.0
  20
 297.00000000000
  30
0.0
  11
0.0
  21
0.0
  31
0.0
   0
LINE
   5
1C5
 100
AcDbEntity
   8
LEVEL001
 370
30
 100
AcDbLine
   6
DOT
  62
7
  10
0.0
  20
0.0
  30
0.0
  11
 420.00000000000
  21
0.0
  31
0.0
   0
LINE
   5
1C6
 100
AcDbEntity
   8
LEVEL001
 370
30
 100
AcDbLine
   6
DOT
  62
7
  10
 420.00000000000
  20
0.0
  30
0.0
  11
 420.00000000000
  21
 297.00000000000
  31
0.0
   0
LINE
   5
1C7
 100
AcDbEntity
   8
LEVEL001
 370
30
 100
AcDbLine
   6
DOT
  62
7
  10
0.0
  20
0.0
  30
0.0
  11
 420.00000000000
  21
0.0
  31
0.0
   0
LINE
   5
1C8
 100
AcDbEntity
   8
LEVEL001
 370
30
 100
AcDbLine
   6
DOT
  62
7
  10
 420.00000000000
  20
0.0
  30
0.0
  11
 420.00000000000
  21
 297.00000000000
  31
0.0
   0
ARC
   5
1C9
 100
AcDbEntity
   8
LEVEL002
 370
30
   6
CONTINUOUS
  62
7
 100
AcDbCircle
  10
 93.112576023894
  20
 238.75596371057
  30
0.0
  40
 12.000000000000
 100
AcDbArc
  50
 270.00000000000
  51
 90.000000000000
   0
LINE
   5
1CA
 100
AcDbEntity
   8
LEVEL002
 370
30
 100
AcDbLine
   6
CONTINUOUS
  62
7
  10
 65.112576023894
  20
 226.75596371057
  30
0.0
  11
 93.112576023894
  21
 226.75596371057
  31
0.0
   0
ARC
   5
1CB
 100
AcDbEntity
   8
LEVEL002
 370
30
   6
CONTINUOUS
  62
7
 100
AcDbCircle
  10
 65.112576023895
  20
 231.75596371057
  30
0.0
  40
 5.0000000000000
 100
AcDbArc
  50
 180.00000000000
  51
 270.00000000000
   0
LINE
   5
1CC
 100
AcDbEntity
   8
LEVEL002
 370
30
 100
AcDbLine
   6
CONTINUOUS
  62
7
  10
 93.112576023894
  20
 250.75596371057
  30
0.0
  11
 65.112576023894
  21
 250.75596371057
  31
0.0
   0
LINE
   5
1CD
 100
AcDbEntity
   8
LEVEL002
 370
30
 100
AcDbLine
   6
CONTINUOUS
  62
7
  10
 60.112576023894
  20
 245.75596371057
  30
0.0
  11
 60.112576023894
  21
 243.50596371057
  31
0.0
   0
LINE
   5
1CE
 100
AcDbEntity
   8
LEVEL002
 370
30
 100
AcDbLine
   6
CONTINUOUS
  62
7
  10
 60.112576023894
  20
 243.50596371057
  30
0.0
  11
 95.112576023894
  21
 243.50596371057
  31
0.0
   0
LINE
   5
1CF
 100
AcDbEntity
   8
LEVEL002
 370
30
 100
AcDbLine
   6
CONTINUOUS
  62
7
  10
 95.112576023894
  20
 243.50596371057
  30
0.0
  11
 95.112576023894
  21
 234.00596371057
  31
0.0
   0
LINE
   5
1D0
 100
AcDbEntity
   8
LEVEL002
 370
30
 100
AcDbLine
   6
CONTINUOUS
  62
7
  10
 95.112576023894
  20
 234.00596371057
  30
0.0
  11
 60.112576023894
  21
 234.00596371057
  31
0.0
   0
LINE
   5
1D1
 100
AcDbEntity
   8
LEVEL002
 370
30
 100
AcDbLine
   6
CONTINUOUS
  62
7
  10
 60.112576023894
  20
 234.00596371057
  30
0.0
  11
 60.112576023894
  21
 231.75596371057
  31
0.0
   0
ARC
   5
1D2
 100
AcDbEntity
   8
LEVEL002
 370
30
   6
CONTINUOUS
  62
7
 100
AcDbCircle
  10
 65.112576023894
  20
 245.75596371057
  30
0.0
  40
 5.0000000000000
 100
AcDbArc
  50
 90.000000000000
  51
 180.00000000000
   0
ARC
   5
1D3
 100
AcDbEntity
   8
LEVEL002
 370
30
   6
CONTINUOUS
  62
7
 100
AcDbCircle
  10
 220.50082843342
  20
 229.75596371057
  30
0.0
  40
 5.0000000000000
 100
AcDbArc
  50
 180.00000000000
  51
 270.00000000000
   0
LINE
   5
1D4
 100
AcDbEntity
   8
LEVEL002
 370
30
 100
AcDbLine
   6
CONTINUOUS
  62
7
  10
 250.50082843342
  20
 238.75596371057
  30
0.0
  11
 250.50082843342
  21
 232.50596371057
  31
0.0
   0
LINE
   5
1D5
 100
AcDbEntity
   8
LEVEL002
 370
30
 100
AcDbLine
   6
CONTINUOUS
  62
7
  10
 250.50082843342
  20
 232.50596371057
  30
0.0
  11
 215.50082843342
  21
 232.50596371057
  31
0.0
   0
LINE
   5
1D6
 100
AcDbEntity
   8
LEVEL002
 370
30
 100
AcDbLine
   6
CONTINUOUS
  62
7
  10
 215.50082843342
  20
 232.50596371057
  30
0.0
  11
 215.50082843342
  21
 229.75596371057
  31
0.0
   0
ARC
   5
1D7
 100
AcDbEntity
   8
LEVEL002
 370
30
   6
CONTINUOUS
  62
7
 100
AcDbCircle
  10
 246.50082843342
  20
 238.75596371057
  30
0.0
  40
 14.000000000000
 100
AcDbArc
  50
 270.00000000000
  51
0.0
   0
ARC
   5
1D8
 100
AcDbEntity
   8
LEVEL002
 370
30
   6
CONTINUOUS
  62
7
 100
AcDbCircle
  10
 220.50082843342
  20
 247.75596371057
  30
0.0
  40
 5.0000000000000
 100
AcDbArc
  50
 90.000000000004
  51
 180.00000000000
   0
LINE
   5
1D9
 100
AcDbEntity
   8
LEVEL002
 370
30
 100
AcDbLine
   6
CONTINUOUS
  62
7
  10
 250.50082843342
  20
 238.75596371057
  30
0.0
  11
 250.50082843342
  21
 245.00596371057
  31
0.0
   0
LINE
   5
1DA
 100
AcDbEntity
   8
LEVEL002
 370
30
 100
AcDbLine
   6
CONTINUOUS
  62
7
  10
 250.50082843342
  20
 245.00596371057
  30
0.0
  11
 215.50082843342
  21
 245.00596371057
  31
0.0
   0
LINE
   5
1DB
 100
AcDbEntity
   8
LEVEL002
 370
30
 100
AcDbLine
   6
CONTINUOUS
  62
7
  10
 215.50082843342
  20
 245.00596371057
  30
0.0
  11
 215.50082843342
  21
 247.75596371057
  31
0.0
   0
ARC
   5
1DC
 100
AcDbEntity
   8
LEVEL002
 370
30
   6
CONTINUOUS
  62
7
 100
AcDbCircle
  10
 246.50082843342
  20
 238.75596371057
  30
0.0
  40
 14.000000000000
 100
AcDbArc
  50
0.0
  51
 90.000000000000
   0
LINE
   5
1DD
 100
AcDbEntity
   8
LEVEL002
 370
30
 100
AcDbLine
   6
CONTINUOUS
  62
7
  10
 220.50082843342
  20
 224.75596371057
  30
0.0
  11
 246.50082843342
  21
 224.75596371057
  31
0.0
   0
LINE
   5
1DE
 100
AcDbEntity
   8
LEVEL002
 370
30
 100
AcDbLine
   6
CONTINUOUS
  62
7
  10
 220.50082843342
  20
 252.75596371057
  30
0.0
  11
 246.50082843342
  21
 252.75596371057
  31
0.0
   0
ARC
   5
1DF
 100
AcDbEntity
   8
LEVEL002
 370
30
   6
CONTINUOUS
  62
7
 100
AcDbCircle
  10
 65.112576023894
  20
 141.12877088764
  30
0.0
  40
 5.0000000000000
 100
AcDbArc
  50
 180.00000000000
  51
 270.00000000000
   0
LINE
   5
1E0
 100
AcDbEntity
   8
LEVEL002
 370
30
 100
AcDbLine
   6
CONTINUOUS
  62
7
  10
 95.112576023894
  20
 152.12877088764
  30
0.0
  11
 95.112576023894
  21
 144.37877088764
  31
0.0
   0
LINE
   5
1E1
 100
AcDbEntity
   8
LEVEL002
 370
30
 100
AcDbLine
   6
CONTINUOUS
  62
7
  10
 95.112576023894
  20
 144.37877088764
  30
0.0
  11
 60.112576023894
  21
 144.37877088764
  31
0.0
   0
LINE
   5
1E2
 100
AcDbEntity
   8
LEVEL002
 370
30
 100
AcDbLine
   6
CONTINUOUS
  62
7
  10
 60.112576023894
  20
 144.37877088764
  30
0.0
  11
 60.112576023894
  21
 141.12877088764
  31
0.0
   0
ARC
   5
1E3
 100
AcDbEntity
   8
LEVEL002
 370
30
   6
CONTINUOUS
  62
7
 100
AcDbCircle
  10
 65.112576023894
  20
 163.12877088764
  30
0.0
  40
 5.0000000000000
 100
AcDbArc
  50
 90.000000000000
  51
 180.00000000000
   0
LINE
   5
1E4
 100
AcDbEntity
   8
LEVEL002
 370
30
 100
AcDbLine
   6
CONTINUOUS
  62
7
  10
 95.112576023894
  20
 152.12877088764
  30
0.0
  11
 95.112576023894
  21
 159.87877088764
  31
0.0
   0
LINE
   5
1E5
 100
AcDbEntity
   8
LEVEL002
 370
30
 100
AcDbLine
   6
CONTINUOUS
  62
7
  10
 95.112576023894
  20
 159.87877088764
  30
0.0
  11
 60.112576023894
  21
 159.87877088764
  31
0.0
   0
LINE
   5
1E6
 100
AcDbEntity
   8
LEVEL002
 370
30
 100
AcDbLine
   6
CONTINUOUS
  62
7
  10
 60.112576023894
  20
 159.87877088764
  30
0.0
  11
 60.112576023894
  21
 163.12877088764
  31
0.0
   0
LINE
   5
1E7
 100
AcDbEntity
   8
LEVEL002
 370
30
 100
AcDbLine
   6
CONTINUOUS
  62
7
  10
 65.112576023894
  20
 136.12877088764
  30
0.0
  11
 89.112576023894
  21
 136.12877088764
  31
0.0
   0
LINE
   5
1E8
 100
AcDbEntity
   8
LEVEL002
 370
30
 100
AcDbLine
   6
CONTINUOUS
  62
7
  10
 65.112576023894
  20
 168.12877088764
  30
0.0
  11
 89.112576023894
  21
 168.12877088764
  31
0.0
   0
ARC
   5
1E9
 100
AcDbEntity
   8
LEVEL002
 370
30
   6
CONTINUOUS
  62
7
 100
AcDbCircle
  10
 89.112576023894
  20
 152.12877088764
  30
0.0
  40
 16.000000000000
 100
AcDbArc
  50
 270.00000000000
  51
 90.000000000000
   0
ARC
   5
1EA
 100
AcDbEntity
   8
LEVEL001
 370
30
   6
CONTINUOUS
  62
7
 100
AcDbCircle
  10
 93.112576023894
  20
 238.75596371057
  30
0.0
  40
 12.000000000000
 100
AcDbArc
  50
 270.00000000000
  51
 90.000000000000
   0
LINE
   5
1EB
 100
AcDbEntity
   8
LEVEL001
 370
30
 100
AcDbLine
   6
CONTINUOUS
  62
7
  10
 65.112576023894
  20
 226.75596371057
  30
0.0
  11
 93.112576023894
  21
 226.75596371057
  31
0.0
   0
ARC
   5
1EC
 100
AcDbEntity
   8
LEVEL001
 370
30
   6
CONTINUOUS
  62
7
 100
AcDbCircle
  10
 65.112576023895
  20
 231.75596371057
  30
0.0
  40
 5.0000000000000
 100
AcDbArc
  50
 180.00000000000
  51
 270.00000000000
   0
LINE
   5
1ED
 100
AcDbEntity
   8
LEVEL001
 370
30
 100
AcDbLine
   6
CONTINUOUS
  62
7
  10
 93.112576023894
  20
 250.75596371057
  30
0.0
  11
 65.112576023894
  21
 250.75596371057
  31
0.0
   0
LINE
   5
1EE
 100
AcDbEntity
   8
LEVEL001
 370
30
 100
AcDbLine
   6
CONTINUOUS
  62
7
  10
 60.112576023894
  20
 245.75596371057
  30
0.0
  11
 60.112576023894
  21
 243.50596371057
  31
0.0
   0
LINE
   5
1EF
 100
AcDbEntity
   8
LEVEL001
 370
30
 100
AcDbLine
   6
CONTINUOUS
  62
7
  10
 60.112576023894
  20
 243.50596371057
  30
0.0
  11
 95.112576023894
  21
 243.50596371057
  31
0.0
   0
LINE
   5
1F0
 100
AcDbEntity
   8
LEVEL001
 370
30
 100
AcDbLine
   6
CONTINUOUS
  62
7
  10
 95.112576023894
  20
 243.50596371057
  30
0.0
  11
 95.112576023894
  21
 234.00596371057
  31
0.0
   0
LINE
   5
1F1
 100
AcDbEntity
   8
LEVEL001
 370
30
 100
AcDbLine
   6
CONTINUOUS
  62
7
  10
 95.112576023894
  20
 234.00596371057
  30
0.0
  11
 60.112576023894
  21
 234.00596371057
  31
0.0
   0
LINE
   5
1F2
 100
AcDbEntity
   8
LEVEL001
 370
30
 100
AcDbLine
   6
CONTINUOUS
  62
7
  10
 60.112576023894
  20
 234.00596371057
  30
0.0
  11
 60.112576023894
  21
 231.75596371057
  31
0.0
   0
ARC
   5
1F3
 100
AcDbEntity
   8
LEVEL001
 370
30
   6
CONTINUOUS
  62
7
 100
AcDbCircle
  10
 65.112576023894
  20
 245.75596371057
  30
0.0
  40
 5.0000000000000
 100
AcDbArc
  50
 90.000000000000
  51
 180.00000000000
   0
ARC
   5
1F4
 100
AcDbEntity
   8
LEVEL001
 370
30
   6
CONTINUOUS
  62
7
 100
AcDbCircle
  10
 220.50082843342
  20
 229.75596371057
  30
0.0
  40
 5.0000000000000
 100
AcDbArc
  50
 180.00000000000
  51
 270.00000000000
   0
LINE
   5
1F5
 100
AcDbEntity
   8
LEVEL001
 370
30
 100
AcDbLine
   6
CONTINUOUS
  62
7
  10
 250.50082843342
  20
 238.75596371057
  30
0.0
  11
 250.50082843342
  21
 232.50596371057
  31
0.0
   0
LINE
   5
1F6
 100
AcDbEntity
   8
LEVEL001
 370
30
 100
AcDbLine
   6
CONTINUOUS
  62
7
  10
 250.50082843342
  20
 232.50596371057
  30
0.0
  11
 215.50082843342
  21
 232.50596371057
  31
0.0
   0
LINE
   5
1F7
 100
AcDbEntity
   8
LEVEL001
 370
30
 100
AcDbLine
   6
CONTINUOUS
  62
7
  10
 215.50082843342
  20
 232.50596371057
  30
0.0
  11
 215.50082843342
  21
 229.75596371057
  31
0.0
   0
ARC
   5
1F8
 100
AcDbEntity
   8
LEVEL001
 370
30
   6
CONTINUOUS
  62
7
 100
AcDbCircle
  10
 246.50082843342
  20
 238.75596371057
  30
0.0
  40
 14.000000000000
 100
AcDbArc
  50
 270.00000000000
  51
0.0
   0
ARC
   5
1F9
 100
AcDbEntity
   8
LEVEL001
 370
30
   6
CONTINUOUS
  62
7
 100
AcDbCircle
  10
 220.50082843342
  20
 247.75596371057
  30
0.0
  40
 5.0000000000000
 100
AcDbArc
  50
 90.000000000004
  51
 180.00000000000
   0
LINE
   5
1FA
 100
AcDbEntity
   8
LEVEL001
 370
30
 100
AcDbLine
   6
CONTINUOUS
  62
7
  10
 250.50082843342
  20
 238.75596371057
  30
0.0
  11
 250.50082843342
  21
 245.00596371057
  31
0.0
   0
LINE
   5
1FB
 100
AcDbEntity
   8
LEVEL001
 370
30
 100
AcDbLine
   6
CONTINUOUS
  62
7
  10
 250.50082843342
  20
 245.00596371057
  30
0.0
  11
 215.50082843342
  21
 245.00596371057
  31
0.0
   0
LINE
   5
1FC
 100
AcDbEntity
   8
LEVEL001
 370
30
 100
AcDbLine
   6
CONTINUOUS
  62
7
  10
 215.50082843342
  20
 245.00596371057
  30
0.0
  11
 215.50082843342
  21
 247.75596371057
  31
0.0
   0
ARC
   5
1FD
 100
AcDbEntity
   8
LEVEL001
 370
30
   6
CONTINUOUS
  62
7
 100
AcDbCircle
  10
 246.50082843342
  20
 238.75596371057
  30
0.0
  40
 14.000000000000
 100
AcDbArc
  50
0.0
  51
 90.000000000000
   0
LINE
   5
1FE
 100
AcDbEntity
   8
LEVEL001
 370
30
 100
AcDbLine
   6
CONTINUOUS
  62
7
  10
 220.50082843342
  20
 224.75596371057
  30
0.0
  11
 246.50082843342
  21
 224.75596371057
  31
0.0
   0
LINE
   5
1FF
 100
AcDbEntity
   8
LEVEL001
 370
30
 100
AcDbLine
   6
CONTINUOUS
  62
7
  10
 220.50082843342
  20
 252.75596371057
  30
0.0
  11
 246.50082843342
  21
 252.75596371057
  31
0.0
   0
ARC
   5
200
 100
AcDbEntity
   8
LEVEL001
 370
30
   6
CONTINUOUS
  62
7
 100
AcDbCircle
  10
 65.112576023894
  20
 141.12877088764
  30
0.0
  40
 5.0000000000000
 100
AcDbArc
  50
 180.00000000000
  51
 270.00000000000
   0
LINE
   5
201
 100
AcDbEntity
   8
LEVEL001
 370
30
 100
AcDbLine
   6
CONTINUOUS
  62
7
  10
 95.112576023894
  20
 152.12877088764
  30
0.0
  11
 95.112576023894
  21
 144.37877088764
  31
0.0
   0
LINE
   5
202
 100
AcDbEntity
   8
LEVEL001
 370
30
 100
AcDbLine
   6
CONTINUOUS
  62
7
  10
 95.112576023894
  20
 144.37877088764
  30
0.0
  11
 60.112576023894
  21
 144.37877088764
  31
0.0
   0
LINE
   5
203
 100
AcDbEntity
   8
LEVEL001
 370
30
 100
AcDbLine
   6
CONTINUOUS
  62
7
  10
 60.112576023894
  20
 144.37877088764
  30
0.0
  11
 60.112576023894
  21
 141.12877088764
  31
0.0
   0
ARC
   5
204
 100
AcDbEntity
   8
LEVEL001
 370
30
   6
CONTINUOUS
  62
7
 100
AcDbCircle
  10
 65.112576023894
  20
 163.12877088764
  30
0.0
  40
 5.0000000000000
 100
AcDbArc
  50
 90.000000000000
  51
 180.00000000000
   0
LINE
   5
205
 100
AcDbEntity
   8
LEVEL001
 370
30
 100
AcDbLine
   6
CONTINUOUS
  62
7
  10
 95.112576023894
  20
 152.12877088764
  30
0.0
  11
 95.112576023894
  21
 159.87877088764
  31
0.0
   0
LINE
   5
206
 100
AcDbEntity
   8
LEVEL001
 370
30
 100
AcDbLine
   6
CONTINUOUS
  62
7
  10
 95.112576023894
  20
 159.87877088764
  30
0.0
  11
 60.112576023894
  21
 159.87877088764
  31
0.0
   0
LINE
   5
207
 100
AcDbEntity
   8
LEVEL001
 370
30
 100
AcDbLine
   6
CONTINUOUS
  62
7
  10
 60.112576023894
  20
 159.87877088764
  30
0.0
  11
 60.112576023894
  21
 163.12877088764
  31
0.0
   0
LINE
   5
208
 100
AcDbEntity
   8
LEVEL001
 370
30
 100
AcDbLine
   6
CONTINUOUS
  62
7
  10
 65.112576023894
  20
 136.12877088764
  30
0.0
  11
 89.112576023894
  21
 136.12877088764
  31
0.0
   0
LINE
   5
209
 100
AcDbEntity
   8
LEVEL001
 370
30
 100
AcDbLine
   6
CONTINUOUS
  62
7
  10
 65.112576023894
  20
 168.12877088764
  30
0.0
  11
 89.112576023894
  21
 168.12877088764
  31
0.0
   0
ARC
   5
20A
 100
AcDbEntity
   8
LEVEL001
 370
30
   6
CONTINUOUS
  62
7
 100
AcDbCircle
  10
 89.112576023894
  20
 152.12877088764
  30
0.0
  40
 16.000000000000
 100
AcDbArc
  50
 270.00000000000
  51
 90.000000000000
   0
LINE
   5
20B
 100
AcDbEntity
   8
LEVEL011
 370
15
 100
AcDbLine
   6
DASHDOT
  62
8
  10
 212.18777769844
  20
 83.129417407262
  30
0.0
  11
 212.18777769844
  21
 20.462750740595
  31
0.0
   0
LINE
   5
20C
 100
AcDbEntity
   8
LEVEL019
 370
25
 100
AcDbLine
   6
CONTINUOUS
  62
1
  10
 245.52111103177
  20
 85.129417407262
  30
0.0
  11
 245.52111103177
  21
 81.129417407262
  31
0.0
   0
LINE
   5
20D
 100
AcDbEntity
   8
LEVEL019
 370
25
 100
AcDbLine
   6
CONTINUOUS
  62
1
  10
 178.85444436511
  20
 85.129417407262
  30
0.0
  11
 178.85444436511
  21
 81.129417407262
  31
0.0
   0
ARC
   5
20E
 100
AcDbEntity
   8
LEVEL019
 370
25
   6
CONTINUOUS
  62
1
 100
AcDbCircle
  10
 208.98777769844
  20
 79.262750740595
  30
0.0
  40
 1.8666666666667
 100
AcDbArc
  50
0.0
  51
 90.000000000000
   0
ARC
   5
20F
 100
AcDbEntity
   8
LEVEL019
 370
25
   6
CONTINUOUS
  62
1
 100
AcDbCircle
  10
 215.38777769844
  20
 79.262750740595
  30
0.0
  40
 1.8666666666667
 100
AcDbArc
  50
 90.000000000000
  51
 180.00000000000
   0
LINE
   5
210
 100
AcDbEntity
   8
LEVEL019
 370
25
 100
AcDbLine
   6
CONTINUOUS
  62
1
  10
 208.98777769844
  20
 81.129417407262
  30
0.0
  11
 178.85444436511
  21
 81.129417407262
  31
0.0
   0
LINE
   5
211
 100
AcDbEntity
   8
LEVEL019
 370
25
 100
AcDbLine
   6
CONTINUOUS
  62
1
  10
 245.52111103177
  20
 81.129417407262
  30
0.0
  11
 215.38777769844
  21
 81.129417407262
  31
0.0
   0
LINE
   5
212
 100
AcDbEntity
   8
LEVEL019
 370
25
 100
AcDbLine
   6
CONTINUOUS
  62
1
  10
 210.85444436511
  20
 79.262750740595
  30
0.0
  11
 210.85444436511
  21
 24.329417407262
  31
0.0
   0
LINE
   5
213
 100
AcDbEntity
   8
LEVEL019
 370
25
 100
AcDbLine
   6
CONTINUOUS
  62
1
  10
 213.52111103177
  20
 79.262750740595
  30
0.0
  11
 213.52111103177
  21
 24.329417407262
  31
0.0
   0
ARC
   5
214
 100
AcDbEntity
   8
LEVEL019
 370
25
   6
CONTINUOUS
  62
1
 100
AcDbCircle
  10
 208.98777769844
  20
 24.329417407262
  30
0.0
  40
 1.8666666666667
 100
AcDbArc
  50
 270.00000000000
  51
0.0
   0
ARC
   5
215
 100
AcDbEntity
   8
LEVEL019
 370
25
   6
CONTINUOUS
  62
1
 100
AcDbCircle
  10
 215.38777769844
  20
 24.329417407262
  30
0.0
  40
 1.8666666666667
 100
AcDbArc
  50
 180.00000000000
  51
 270.00000000000
   0
LINE
   5
216
 100
AcDbEntity
   8
LEVEL019
 370
25
 100
AcDbLine
   6
CONTINUOUS
  62
1
  10
 208.98777769844
  20
 22.462750740595
  30
0.0
  11
 178.85444436511
  21
 22.462750740595
  31
0.0
   0
LINE
   5
217
 100
AcDbEntity
   8
LEVEL019
 370
25
 100
AcDbLine
   6
CONTINUOUS
  62
1
  10
 245.52111103178
  20
 22.462750740595
  30
0.0
  11
 215.38777769844
  21
 22.462750740595
  31
0.0
   0
LINE
   5
218
 100
AcDbEntity
   8
LEVEL019
 370
25
 100
AcDbLine
   6
CONTINUOUS
  62
1
  10
 245.52111103177
  20
 18.462750740595
  30
0.0
  11
 245.52111103177
  21
 22.462750740595
  31
0.0
   0
LINE
   5
219
 100
AcDbEntity
   8
LEVEL019
 370
25
 100
AcDbLine
   6
CONTINUOUS
  62
1
  10
 178.85444436511
  20
 18.462750740595
  30
0.0
  11
 178.85444436511
  21
 22.462750740595
  31
0.0
   0
LINE
   5
21A
 100
AcDbEntity
   8
LEVEL019
 370
25
 100
AcDbLine
   6
CONTINUOUS
  62
1
  10
 178.85444436511
  20
 18.462750740595
  30
0.0
  11
 245.52111103178
  21
 18.462750740595
  31
0.0
   0
LINE
   5
21B
 100
AcDbEntity
   8
LEVEL019
 370
25
 100
AcDbLine
   6
CONTINUOUS
  62
1
  10
 178.85444436511
  20
 85.129417407262
  30
0.0
  11
 245.52111103177
  21
 85.129417407262
  31
0.0
   0
ARC
   5
21C
 100
AcDbEntity
   8
LEVEL002
 370
30
   6
CONTINUOUS
  62
7
 100
AcDbCircle
  10
 235.52111103177
  20
 80.129417407262
  30
0.0
  40
 1.6666666666667
 100
AcDbArc
  50
 180.00000000000
  51
 270.00000000000
   0
LINE
   5
21D
 100
AcDbEntity
   8
LEVEL002
 370
30
 100
AcDbLine
   6
CONTINUOUS
  62
7
  10
 245.52111103177
  20
 83.129417407262
  30
0.0
  11
 245.52111103177
  21
 81.046084073929
  31
0.0
   0
LINE
   5
21E
 100
AcDbEntity
   8
LEVEL002
 370
30
 100
AcDbLine
   6
CONTINUOUS
  62
7
  10
 245.52111103177
  20
 81.046084073929
  30
0.0
  11
 233.85444436511
  21
 81.046084073929
  31
0.0
   0
LINE
   5
21F
 100
AcDbEntity
   8
LEVEL002
 370
30
 100
AcDbLine
   6
CONTINUOUS
  62
7
  10
 233.85444436511
  20
 81.046084073929
  30
0.0
  11
 233.85444436511
  21
 80.129417407262
  31
0.0
   0
ARC
   5
220
 100
AcDbEntity
   8
LEVEL002
 370
30
   6
CONTINUOUS
  62
7
 100
AcDbCircle
  10
 244.18777769844
  20
 83.129417407262
  30
0.0
  40
 4.6666666666667
 100
AcDbArc
  50
 270.00000000000
  51
0.0
   0
ARC
   5
221
 100
AcDbEntity
   8
LEVEL002
 370
30
   6
CONTINUOUS
  62
7
 100
AcDbCircle
  10
 235.52111103177
  20
 86.129417407262
  30
0.0
  40
 1.6666666666667
 100
AcDbArc
  50
 90.000000000005
  51
 180.00000000000
   0
LINE
   5
222
 100
AcDbEntity
   8
LEVEL002
 370
30
 100
AcDbLine
   6
CONTINUOUS
  62
7
  10
 245.52111103177
  20
 83.129417407262
  30
0.0
  11
 245.52111103177
  21
 85.212750740595
  31
0.0
   0
LINE
   5
223
 100
AcDbEntity
   8
LEVEL002
 370
30
 100
AcDbLine
   6
CONTINUOUS
  62
7
  10
 245.52111103177
  20
 85.212750740595
  30
0.0
  11
 233.85444436511
  21
 85.212750740595
  31
0.0
   0
LINE
   5
224
 100
AcDbEntity
   8
LEVEL002
 370
30
 100
AcDbLine
   6
CONTINUOUS
  62
7
  10
 233.85444436511
  20
 85.212750740595
  30
0.0
  11
 233.85444436511
  21
 86.129417407262
  31
0.0
   0
ARC
   5
225
 100
AcDbEntity
   8
LEVEL002
 370
30
   6
CONTINUOUS
  62
7
 100
AcDbCircle
  10
 244.18777769844
  20
 83.129417407262
  30
0.0
  40
 4.6666666666667
 100
AcDbArc
  50
0.0
  51
 90.000000000000
   0
LINE
   5
226
 100
AcDbEntity
   8
LEVEL002
 370
30
 100
AcDbLine
   6
CONTINUOUS
  62
7
  10
 235.52111103177
  20
 78.462750740595
  30
0.0
  11
 244.18777769844
  21
 78.462750740595
  31
0.0
   0
LINE
   5
227
 100
AcDbEntity
   8
LEVEL002
 370
30
 100
AcDbLine
   6
CONTINUOUS
  62
7
  10
 235.52111103177
  20
 87.796084073929
  30
0.0
  11
 244.18777769844
  21
 87.796084073929
  31
0.0
   0
ARC
   5
228
 100
AcDbEntity
   8
LEVEL001
 370
30
   6
CONTINUOUS
  62
7
 100
AcDbCircle
  10
 235.52111103177
  20
 80.129417407262
  30
0.0
  40
 1.6666666666667
 100
AcDbArc
  50
 180.00000000000
  51
 270.00000000000
   0
LINE
   5
229
 100
AcDbEntity
   8
LEVEL001
 370
30
 100
AcDbLine
   6
CONTINUOUS
  62
7
  10
 245.52111103177
  20
 83.129417407262
  30
0.0
  11
 245.52111103177
  21
 81.046084073929
  31
0.0
   0
LINE
   5
22A
 100
AcDbEntity
   8
LEVEL001
 370
30
 100
AcDbLine
   6
CONTINUOUS
  62
7
  10
 245.52111103177
  20
 81.046084073929
  30
0.0
  11
 233.85444436511
  21
 81.046084073929
  31
0.0
   0
LINE
   5
22B
 100
AcDbEntity
   8
LEVEL001
 370
30
 100
AcDbLine
   6
CONTINUOUS
  62
7
  10
 233.85444436511
  20
 81.046084073929
  30
0.0
  11
 233.85444436511
  21
 80.129417407262
  31
0.0
   0
ARC
   5
22C
 100
AcDbEntity
   8
LEVEL001
 370
30
   6
CONTINUOUS
  62
7
 100
AcDbCircle
  10
 244.18777769844
  20
 83.129417407262
  30
0.0
  40
 4.6666666666667
 100
AcDbArc
  50
 270.00000000000
  51
0.0
   0
ARC
   5
22D
 100
AcDbEntity
   8
LEVEL001
 370
30
   6
CONTINUOUS
  62
7
 100
AcDbCircle
  10
 235.52111103177
  20
 86.129417407262
  30
0.0
  40
 1.6666666666667
 100
AcDbArc
  50
 90.000000000005
  51
 180.00000000000
   0
LINE
   5
22E
 100
AcDbEntity
   8
LEVEL001
 370
30
 100
AcDbLine
   6
CONTINUOUS
  62
7
  10
 245.52111103177
  20
 83.129417407262
  30
0.0
  11
 245.52111103177
  21
 85.212750740595
  31
0.0
   0
LINE
   5
22F
 100
AcDbEntity
   8
LEVEL001
 370
30
 100
AcDbLine
   6
CONTINUOUS
  62
7
  10
 245.52111103177
  20
 85.212750740595
  30
0.0
  11
 233.85444436511
  21
 85.212750740595
  31
0.0
   0
LINE
   5
230
 100
AcDbEntity
   8
LEVEL001
 370
30
 100
AcDbLine
   6
CONTINUOUS
  62
7
  10
 233.85444436511
  20
 85.212750740595
  30
0.0
  11
 233.85444436511
  21
 86.129417407262
  31
0.0
   0
ARC
   5
231
 100
AcDbEntity
   8
LEVEL001
 370
30
   6
CONTINUOUS
  62
7
 100
AcDbCircle
  10
 244.18777769844
  20
 83.129417407262
  30
0.0
  40
 4.6666666666667
 100
AcDbArc
  50
0.0
  51
 90.000000000000
   0
LINE
   5
232
 100
AcDbEntity
   8
LEVEL001
 370
30
 100
AcDbLine
   6
CONTINUOUS
  62
7
  10
 235.52111103177
  20
 78.462750740595
  30
0.0
  11
 244.18777769844
  21
 78.462750740595
  31
0.0
   0
LINE
   5
233
 100
AcDbEntity
   8
LEVEL001
 370
30
 100
AcDbLine
   6
CONTINUOUS
  62
7
  10
 235.52111103177
  20
 87.796084073929
  30
0.0
  11
 244.18777769844
  21
 87.796084073929
  31
0.0
   0
LINE
   5
234
 100
AcDbEntity
   8
LEVEL001
 370
15
 100
AcDbLine
   6
CONTINUOUS
  62
2
  10
 233.85444436511
  20
 81.046084073929
  30
0.0
  11
 242.18777769844
  21
 81.046084073929
  31
0.0
   0
LINE
   5
235
 100
AcDbEntity
   8
LEVEL001
 370
15
 100
AcDbLine
   6
CONTINUOUS
  62
2
  10
 242.18777769844
  20
 81.046084073929
  30
0.0
  11
 242.18777769844
  21
 81.129417407262
  31
0.0
   0
LINE
   5
236
 100
AcDbEntity
   8
LEVEL001
 370
15
 100
AcDbLine
   6
CONTINUOUS
  62
2
  10
 242.18777769844
  20
 81.129417407262
  30
0.0
  11
 233.85444436511
  21
 81.129417407262
  31
0.0
   0
LINE
   5
237
 100
AcDbEntity
   8
LEVEL001
 370
15
 100
AcDbLine
   6
CONTINUOUS
  62
2
  10
 233.85444436511
  20
 81.129417407262
  30
0.0
  11
 233.85444436511
  21
 81.046084073929
  31
0.0
   0
LINE
   5
238
 100
AcDbEntity
   8
LEVEL001
 370
15
 100
AcDbLine
   6
CONTINUOUS
  62
2
  10
 233.85444436511
  20
 85.212750740595
  30
0.0
  11
 242.18777769844
  21
 85.212750740595
  31
0.0
   0
LINE
   5
239
 100
AcDbEntity
   8
LEVEL001
 370
15
 100
AcDbLine
   6
CONTINUOUS
  62
2
  10
 242.18777769844
  20
 85.212750740595
  30
0.0
  11
 242.18777769844
  21
 85.129417407262
  31
0.0
   0
LINE
   5
23A
 100
AcDbEntity
   8
LEVEL001
 370
15
 100
AcDbLine
   6
CONTINUOUS
  62
2
  10
 242.18777769844
  20
 85.129417407262
  30
0.0
  11
 233.85444436511
  21
 85.129417407262
  31
0.0
   0
LINE
   5
23B
 100
AcDbEntity
   8
LEVEL001
 370
15
 100
AcDbLine
   6
CONTINUOUS
  62
2
  10
 233.85444436511
  20
 85.129417407262
  30
0.0
  11
 233.85444436511
  21
 85.212750740595
  31
0.0
   0
LINE
   5
23C
 100
AcDbEntity
   8
LEVEL001
 370
15
 100
AcDbLine
   6
CONTINUOUS
  62
2
  10
 236.40500354352
  20
 85.129417407262
  30
0.0
  11
 236.48833687685
  21
 85.212750740595
  31
0.0
   0
LINE
   5
23D
 100
AcDbEntity
   8
LEVEL001
 370
15
 100
AcDbLine
   6
CONTINUOUS
  62
2
  10
 235.93359902272
  20
 85.129417407262
  30
0.0
  11
 236.01693235606
  21
 85.212750740595
  31
0.0
   0
LINE
   5
23E
 100
AcDbEntity
   8
LEVEL001
 370
15
 100
AcDbLine
   6
CONTINUOUS
  62
2
  10
 235.46219450193
  20
 85.129417407262
  30
0.0
  11
 235.54552783527
  21
 85.212750740595
  31
0.0
   0
LINE
   5
23F
 100
AcDbEntity
   8
LEVEL001
 370
15
 100
AcDbLine
   6
CONTINUOUS
  62
2
  10
 234.99078998114
  20
 85.129417407262
  30
0.0
  11
 235.07412331448
  21
 85.212750740595
  31
0.0
   0
LINE
   5
240
 100
AcDbEntity
   8
LEVEL001
 370
15
 100
AcDbLine
   6
CONTINUOUS
  62
2
  10
 234.51938546035
  20
 85.129417407262
  30
0.0
  11
 234.60271879368
  21
 85.212750740595
  31
0.0
   0
LINE
   5
241
 100
AcDbEntity
   8
LEVEL001
 370
15
 100
AcDbLine
   6
CONTINUOUS
  62
2
  10
 234.04798093956
  20
 85.129417407262
  30
0.0
  11
 234.13131427289
  21
 85.212750740595
  31
0.0
   0
LINE
   5
242
 100
AcDbEntity
   8
LEVEL001
 370
15
 100
AcDbLine
   6
CONTINUOUS
  62
2
  10
 236.87640806431
  20
 85.129417407262
  30
0.0
  11
 236.95974139764
  21
 85.212750740595
  31
0.0
   0
LINE
   5
243
 100
AcDbEntity
   8
LEVEL001
 370
15
 100
AcDbLine
   6
CONTINUOUS
  62
2
  10
 237.50711993888
  20
 81.046084073929
  30
0.0
  11
 237.59045327222
  21
 81.129417407262
  31
0.0
   0
LINE
   5
244
 100
AcDbEntity
   8
LEVEL001
 370
15
 100
AcDbLine
   6
CONTINUOUS
  62
2
  10
 241.59045327222
  20
 85.129417407262
  30
0.0
  11
 241.67378660555
  21
 85.212750740595
  31
0.0
   0
LINE
   5
245
 100
AcDbEntity
   8
LEVEL001
 370
15
 100
AcDbLine
   6
CONTINUOUS
  62
2
  10
 237.03571541809
  20
 81.046084073929
  30
0.0
  11
 237.11904875143
  21
 81.129417407262
  31
0.0
   0
LINE
   5
246
 100
AcDbEntity
   8
LEVEL001
 370
15
 100
AcDbLine
   6
CONTINUOUS
  62
2
  10
 241.11904875143
  20
 85.129417407262
  30
0.0
  11
 241.20238208476
  21
 85.212750740595
  31
0.0
   0
LINE
   5
247
 100
AcDbEntity
   8
LEVEL001
 370
15
 100
AcDbLine
   6
CONTINUOUS
  62
2
  10
 236.56431089730
  20
 81.046084073929
  30
0.0
  11
 236.64764423063
  21
 81.129417407262
  31
0.0
   0
LINE
   5
248
 100
AcDbEntity
   8
LEVEL001
 370
15
 100
AcDbLine
   6
CONTINUOUS
  62
2
  10
 240.64764423063
  20
 85.129417407262
  30
0.0
  11
 240.73097756397
  21
 85.212750740595
  31
0.0
   0
LINE
   5
249
 100
AcDbEntity
   8
LEVEL001
 370
15
 100
AcDbLine
   6
CONTINUOUS
  62
2
  10
 236.09290637651
  20
 81.046084073929
  30
0.0
  11
 236.17623970984
  21
 81.129417407262
  31
0.0
   0
LINE
   5
24A
 100
AcDbEntity
   8
LEVEL001
 370
15
 100
AcDbLine
   6
CONTINUOUS
  62
2
  10
 240.17623970984
  20
 85.129417407262
  30
0.0
  11
 240.25957304318
  21
 85.212750740595
  31
0.0
   0
LINE
   5
24B
 100
AcDbEntity
   8
LEVEL001
 370
15
 100
AcDbLine
   6
CONTINUOUS
  62
2
  10
 235.62150185572
  20
 81.046084073929
  30
0.0
  11
 235.70483518905
  21
 81.129417407262
  31
0.0
   0
LINE
   5
24C
 100
AcDbEntity
   8
LEVEL001
 370
15
 100
AcDbLine
   6
CONTINUOUS
  62
2
  10
 239.70483518905
  20
 85.129417407262
  30
0.0
  11
 239.78816852239
  21
 85.212750740595
  31
0.0
   0
LINE
   5
24D
 100
AcDbEntity
   8
LEVEL001
 370
15
 100
AcDbLine
   6
CONTINUOUS
  62
2
  10
 235.15009733493
  20
 81.046084073929
  30
0.0
  11
 235.23343066826
  21
 81.129417407262
  31
0.0
   0
LINE
   5
24E
 100
AcDbEntity
   8
LEVEL001
 370
15
 100
AcDbLine
   6
CONTINUOUS
  62
2
  10
 239.23343066826
  20
 85.129417407262
  30
0.0
  11
 239.31676400159
  21
 85.212750740595
  31
0.0
   0
LINE
   5
24F
 100
AcDbEntity
   8
LEVEL001
 370
15
 100
AcDbLine
   6
CONTINUOUS
  62
2
  10
 234.67869281414
  20
 81.046084073929
  30
0.0
  11
 234.76202614747
  21
 81.129417407262
  31
0.0
   0
LINE
   5
250
 100
AcDbEntity
   8
LEVEL001
 370
15
 100
AcDbLine
   6
CONTINUOUS
  62
2
  10
 238.76202614747
  20
 85.129417407262
  30
0.0
  11
 238.84535948080
  21
 85.212750740595
  31
0.0
   0
LINE
   5
251
 100
AcDbEntity
   8
LEVEL001
 370
15
 100
AcDbLine
   6
CONTINUOUS
  62
2
  10
 234.20728829335
  20
 81.046084073929
  30
0.0
  11
 234.29062162668
  21
 81.129417407262
  31
0.0
   0
LINE
   5
252
 100
AcDbEntity
   8
LEVEL001
 370
15
 100
AcDbLine
   6
CONTINUOUS
  62
2
  10
 238.29062162668
  20
 85.129417407262
  30
0.0
  11
 238.37395496001
  21
 85.212750740595
  31
0.0
   0
LINE
   5
253
 100
AcDbEntity
   8
LEVEL001
 370
15
 100
AcDbLine
   6
CONTINUOUS
  62
2
  10
 237.81921710589
  20
 85.129417407262
  30
0.0
  11
 237.90255043922
  21
 85.212750740595
  31
0.0
   0
LINE
   5
254
 100
AcDbEntity
   8
LEVEL001
 370
15
 100
AcDbLine
   6
CONTINUOUS
  62
2
  10
 237.34781258510
  20
 85.129417407262
  30
0.0
  11
 237.43114591843
  21
 85.212750740595
  31
0.0
   0
LINE
   5
255
 100
AcDbEntity
   8
LEVEL001
 370
15
 100
AcDbLine
   6
CONTINUOUS
  62
2
  10
 241.74976062600
  20
 81.046084073929
  30
0.0
  11
 241.83309395934
  21
 81.129417407262
  31
0.0
   0
LINE
   5
256
 100
AcDbEntity
   8
LEVEL001
 370
15
 100
AcDbLine
   6
CONTINUOUS
  62
2
  10
 241.27835610521
  20
 81.046084073929
  30
0.0
  11
 241.36168943854
  21
 81.129417407262
  31
0.0
   0
LINE
   5
257
 100
AcDbEntity
   8
LEVEL001
 370
15
 100
AcDbLine
   6
CONTINUOUS
  62
2
  10
 240.80695158442
  20
 81.046084073929
  30
0.0
  11
 240.89028491775
  21
 81.129417407262
  31
0.0
   0
LINE
   5
258
 100
AcDbEntity
   8
LEVEL001
 370
15
 100
AcDbLine
   6
CONTINUOUS
  62
2
  10
 240.33554706363
  20
 81.046084073929
  30
0.0
  11
 240.41888039696
  21
 81.129417407262
  31
0.0
   0
LINE
   5
259
 100
AcDbEntity
   8
LEVEL001
 370
15
 100
AcDbLine
   6
CONTINUOUS
  62
2
  10
 239.86414254284
  20
 81.046084073929
  30
0.0
  11
 239.94747587617
  21
 81.129417407262
  31
0.0
   0
LINE
   5
25A
 100
AcDbEntity
   8
LEVEL001
 370
15
 100
AcDbLine
   6
CONTINUOUS
  62
2
  10
 239.39273802205
  20
 81.046084073929
  30
0.0
  11
 239.47607135538
  21
 81.129417407262
  31
0.0
   0
LINE
   5
25B
 100
AcDbEntity
   8
LEVEL001
 370
15
 100
AcDbLine
   6
CONTINUOUS
  62
2
  10
 238.92133350126
  20
 81.046084073929
  30
0.0
  11
 239.00466683459
  21
 81.129417407262
  31
0.0
   0
LINE
   5
25C
 100
AcDbEntity
   8
LEVEL001
 370
15
 100
AcDbLine
   6
CONTINUOUS
  62
2
  10
 238.44992898047
  20
 81.046084073929
  30
0.0
  11
 238.53326231380
  21
 81.129417407262
  31
0.0
   0
LINE
   5
25D
 100
AcDbEntity
   8
LEVEL001
 370
15
 100
AcDbLine
   6
CONTINUOUS
  62
2
  10
 237.97852445967
  20
 81.046084073929
  30
0.0
  11
 238.06185779301
  21
 81.129417407262
  31
0.0
   0
LINE
   5
25E
 100
AcDbEntity
   8
LEVEL001
 370
15
 100
AcDbLine
   6
CONTINUOUS
  62
2
  10
 242.06185779301
  20
 85.129417407262
  30
0.0
  11
 242.14519112634
  21
 85.212750740595
  31
0.0
   0
ARC
   5
25F
 100
AcDbEntity
   8
LEVEL002
 370
30
   6
CONTINUOUS
  62
7
 100
AcDbCircle
  10
 188.85444436511
  20
 80.129417407262
  30
0.0
  40
 1.6666666666667
 100
AcDbArc
  50
 270.00000000000
  51
0.0
   0
LINE
   5
260
 100
AcDbEntity
   8
LEVEL002
 370
30
 100
AcDbLine
   6
CONTINUOUS
  62
7
  10
 178.85444436511
  20
 83.129417407262
  30
0.0
  11
 178.85444436511
  21
 81.046084073929
  31
0.0
   0
LINE
   5
261
 100
AcDbEntity
   8
LEVEL002
 370
30
 100
AcDbLine
   6
CONTINUOUS
  62
7
  10
 178.85444436511
  20
 81.046084073929
  30
0.0
  11
 190.52111103177
  21
 81.046084073929
  31
0.0
   0
LINE
   5
262
 100
AcDbEntity
   8
LEVEL002
 370
30
 100
AcDbLine
   6
CONTINUOUS
  62
7
  10
 190.52111103177
  20
 81.046084073929
  30
0.0
  11
 190.52111103177
  21
 80.129417407262
  31
0.0
   0
ARC
   5
263
 100
AcDbEntity
   8
LEVEL002
 370
30
   6
CONTINUOUS
  62
7
 100
AcDbCircle
  10
 180.18777769844
  20
 83.129417407262
  30
0.0
  40
 4.6666666666667
 100
AcDbArc
  50
 180.00000000000
  51
 270.00000000000
   0
ARC
   5
264
 100
AcDbEntity
   8
LEVEL002
 370
30
   6
CONTINUOUS
  62
7
 100
AcDbCircle
  10
 188.85444436511
  20
 86.129417407262
  30
0.0
  40
 1.6666666666667
 100
AcDbArc
  50
0.0
  51
 89.999999999995
   0
LINE
   5
265
 100
AcDbEntity
   8
LEVEL002
 370
30
 100
AcDbLine
   6
CONTINUOUS
  62
7
  10
 178.85444436511
  20
 83.129417407262
  30
0.0
  11
 178.85444436511
  21
 85.212750740595
  31
0.0
   0
LINE
   5
266
 100
AcDbEntity
   8
LEVEL002
 370
30
 100
AcDbLine
   6
CONTINUOUS
  62
7
  10
 178.85444436511
  20
 85.212750740595
  30
0.0
  11
 190.52111103177
  21
 85.212750740595
  31
0.0
   0
LINE
   5
267
 100
AcDbEntity
   8
LEVEL002
 370
30
 100
AcDbLine
   6
CONTINUOUS
  62
7
  10
 190.52111103177
  20
 85.212750740595
  30
0.0
  11
 190.52111103177
  21
 86.129417407262
  31
0.0
   0
ARC
   5
268
 100
AcDbEntity
   8
LEVEL002
 370
30
   6
CONTINUOUS
  62
7
 100
AcDbCircle
  10
 180.18777769844
  20
 83.129417407262
  30
0.0
  40
 4.6666666666667
 100
AcDbArc
  50
 90.000000000000
  51
 180.00000000000
   0
LINE
   5
269
 100
AcDbEntity
   8
LEVEL002
 370
30
 100
AcDbLine
   6
CONTINUOUS
  62
7
  10
 188.85444436511
  20
 78.462750740595
  30
0.0
  11
 180.18777769844
  21
 78.462750740595
  31
0.0
   0
LINE
   5
26A
 100
AcDbEntity
   8
LEVEL002
 370
30
 100
AcDbLine
   6
CONTINUOUS
  62
7
  10
 188.85444436511
  20
 87.796084073929
  30
0.0
  11
 180.18777769844
  21
 87.796084073929
  31
0.0
   0
ARC
   5
26B
 100
AcDbEntity
   8
LEVEL001
 370
30
   6
CONTINUOUS
  62
7
 100
AcDbCircle
  10
 188.85444436511
  20
 80.129417407262
  30
0.0
  40
 1.6666666666667
 100
AcDbArc
  50
 270.00000000000
  51
0.0
   0
LINE
   5
26C
 100
AcDbEntity
   8
LEVEL001
 370
30
 100
AcDbLine
   6
CONTINUOUS
  62
7
  10
 178.85444436511
  20
 83.129417407262
  30
0.0
  11
 178.85444436511
  21
 81.046084073929
  31
0.0
   0
LINE
   5
26D
 100
AcDbEntity
   8
LEVEL001
 370
30
 100
AcDbLine
   6
CONTINUOUS
  62
7
  10
 178.85444436511
  20
 81.046084073929
  30
0.0
  11
 190.52111103177
  21
 81.046084073929
  31
0.0
   0
LINE
   5
26E
 100
AcDbEntity
   8
LEVEL001
 370
30
 100
AcDbLine
   6
CONTINUOUS
  62
7
  10
 190.52111103177
  20
 81.046084073929
  30
0.0
  11
 190.52111103177
  21
 80.129417407262
  31
0.0
   0
ARC
   5
26F
 100
AcDbEntity
   8
LEVEL001
 370
30
   6
CONTINUOUS
  62
7
 100
AcDbCircle
  10
 180.18777769844
  20
 83.129417407262
  30
0.0
  40
 4.6666666666667
 100
AcDbArc
  50
 180.00000000000
  51
 270.00000000000
   0
ARC
   5
270
 100
AcDbEntity
   8
LEVEL001
 370
30
   6
CONTINUOUS
  62
7
 100
AcDbCircle
  10
 188.85444436511
  20
 86.129417407262
  30
0.0
  40
 1.6666666666667
 100
AcDbArc
  50
0.0
  51
 89.999999999995
   0
LINE
   5
271
 100
AcDbEntity
   8
LEVEL001
 370
30
 100
AcDbLine
   6
CONTINUOUS
  62
7
  10
 178.85444436511
  20
 83.129417407262
  30
0.0
  11
 178.85444436511
  21
 85.212750740595
  31
0.0
   0
LINE
   5
272
 100
AcDbEntity
   8
LEVEL001
 370
30
 100
AcDbLine
   6
CONTINUOUS
  62
7
  10
 178.85444436511
  20
 85.212750740595
  30
0.0
  11
 190.52111103177
  21
 85.212750740595
  31
0.0
   0
LINE
   5
273
 100
AcDbEntity
   8
LEVEL001
 370
30
 100
AcDbLine
   6
CONTINUOUS
  62
7
  10
 190.52111103177
  20
 85.212750740595
  30
0.0
  11
 190.52111103177
  21
 86.129417407262
  31
0.0
   0
ARC
   5
274
 100
AcDbEntity
   8
LEVEL001
 370
30
   6
CONTINUOUS
  62
7
 100
AcDbCircle
  10
 180.18777769844
  20
 83.129417407262
  30
0.0
  40
 4.6666666666667
 100
AcDbArc
  50
 90.000000000000
  51
 180.00000000000
   0
LINE
   5
275
 100
AcDbEntity
   8
LEVEL001
 370
30
 100
AcDbLine
   6
CONTINUOUS
  62
7
  10
 188.85444436511
  20
 78.462750740595
  30
0.0
  11
 180.18777769844
  21
 78.462750740595
  31
0.0
   0
LINE
   5
276
 100
AcDbEntity
   8
LEVEL001
 370
30
 100
AcDbLine
   6
CONTINUOUS
  62
7
  10
 188.85444436511
  20
 87.796084073929
  30
0.0
  11
 180.18777769844
  21
 87.796084073929
  31
0.0
   0
LINE
   5
277
 100
AcDbEntity
   8
LEVEL001
 370
15
 100
AcDbLine
   6
CONTINUOUS
  62
2
  10
 190.52111103177
  20
 81.046084073929
  30
0.0
  11
 182.18777769844
  21
 81.046084073929
  31
0.0
   0
LINE
   5
278
 100
AcDbEntity
   8
LEVEL001
 370
15
 100
AcDbLine
   6
CONTINUOUS
  62
2
  10
 182.18777769844
  20
 81.046084073929
  30
0.0
  11
 182.18777769844
  21
 81.129417407262
  31
0.0
   0
LINE
   5
279
 100
AcDbEntity
   8
LEVEL001
 370
15
 100
AcDbLine
   6
CONTINUOUS
  62
2
  10
 182.18777769844
  20
 81.129417407262
  30
0.0
  11
 190.52111103177
  21
 81.129417407262
  31
0.0
   0
LINE
   5
27A
 100
AcDbEntity
   8
LEVEL001
 370
15
 100
AcDbLine
   6
CONTINUOUS
  62
2
  10
 190.52111103177
  20
 81.129417407262
  30
0.0
  11
 190.52111103177
  21
 81.046084073929
  31
0.0
   0
LINE
   5
27B
 100
AcDbEntity
   8
LEVEL001
 370
15
 100
AcDbLine
   6
CONTINUOUS
  62
2
  10
 190.52111103177
  20
 85.212750740595
  30
0.0
  11
 182.18777769844
  21
 85.212750740595
  31
0.0
   0
LINE
   5
27C
 100
AcDbEntity
   8
LEVEL001
 370
15
 100
AcDbLine
   6
CONTINUOUS
  62
2
  10
 182.18777769844
  20
 85.212750740595
  30
0.0
  11
 182.18777769844
  21
 85.129417407262
  31
0.0
   0
LINE
   5
27D
 100
AcDbEntity
   8
LEVEL001
 370
15
 100
AcDbLine
   6
CONTINUOUS
  62
2
  10
 182.18777769844
  20
 85.129417407262
  30
0.0
  11
 190.52111103177
  21
 85.129417407262
  31
0.0
   0
LINE
   5
27E
 100
AcDbEntity
   8
LEVEL001
 370
15
 100
AcDbLine
   6
CONTINUOUS
  62
2
  10
 190.52111103177
  20
 85.129417407262
  30
0.0
  11
 190.52111103177
  21
 85.212750740595
  31
0.0
   0
LINE
   5
27F
 100
AcDbEntity
   8
LEVEL001
 370
15
 100
AcDbLine
   6
CONTINUOUS
  62
2
  10
 187.97055185337
  20
 85.129417407262
  30
0.0
  11
 187.88721852003
  21
 85.212750740595
  31
0.0
   0
LINE
   5
280
 100
AcDbEntity
   8
LEVEL001
 370
15
 100
AcDbLine
   6
CONTINUOUS
  62
2
  10
 188.44195637416
  20
 85.129417407262
  30
0.0
  11
 188.35862304082
  21
 85.212750740595
  31
0.0
   0
LINE
   5
281
 100
AcDbEntity
   8
LEVEL001
 370
15
 100
AcDbLine
   6
CONTINUOUS
  62
2
  10
 188.91336089495
  20
 85.129417407262
  30
0.0
  11
 188.83002756161
  21
 85.212750740595
  31
0.0
   0
LINE
   5
282
 100
AcDbEntity
   8
LEVEL001
 370
15
 100
AcDbLine
   6
CONTINUOUS
  62
2
  10
 189.38476541574
  20
 85.129417407262
  30
0.0
  11
 189.30143208241
  21
 85.212750740595
  31
0.0
   0
LINE
   5
283
 100
AcDbEntity
   8
LEVEL001
 370
15
 100
AcDbLine
   6
CONTINUOUS
  62
2
  10
 189.85616993653
  20
 85.129417407262
  30
0.0
  11
 189.77283660320
  21
 85.212750740595
  31
0.0
   0
LINE
   5
284
 100
AcDbEntity
   8
LEVEL001
 370
15
 100
AcDbLine
   6
CONTINUOUS
  62
2
  10
 190.32757445732
  20
 85.129417407262
  30
0.0
  11
 190.24424112399
  21
 85.212750740595
  31
0.0
   0
LINE
   5
285
 100
AcDbEntity
   8
LEVEL001
 370
15
 100
AcDbLine
   6
CONTINUOUS
  62
2
  10
 187.49914733257
  20
 85.129417407262
  30
0.0
  11
 187.41581399924
  21
 85.212750740595
  31
0.0
   0
LINE
   5
286
 100
AcDbEntity
   8
LEVEL001
 370
15
 100
AcDbLine
   6
CONTINUOUS
  62
2
  10
 186.86843545800
  20
 81.046084073929
  30
0.0
  11
 186.78510212466
  21
 81.129417407262
  31
0.0
   0
LINE
   5
287
 100
AcDbEntity
   8
LEVEL001
 370
15
 100
AcDbLine
   6
CONTINUOUS
  62
2
  10
 182.78510212466
  20
 85.129417407262
  30
0.0
  11
 182.70176879133
  21
 85.212750740595
  31
0.0
   0
LINE
   5
288
 100
AcDbEntity
   8
LEVEL001
 370
15
 100
AcDbLine
   6
CONTINUOUS
  62
2
  10
 187.33983997879
  20
 81.046084073929
  30
0.0
  11
 187.25650664546
  21
 81.129417407262
  31
0.0
   0
LINE
   5
289
 100
AcDbEntity
   8
LEVEL001
 370
15
 100
AcDbLine
   6
CONTINUOUS
  62
2
  10
 183.25650664546
  20
 85.129417407262
  30
0.0
  11
 183.17317331212
  21
 85.212750740595
  31
0.0
   0
LINE
   5
28A
 100
AcDbEntity
   8
LEVEL001
 370
15
 100
AcDbLine
   6
CONTINUOUS
  62
2
  10
 187.81124449958
  20
 81.046084073929
  30
0.0
  11
 187.72791116625
  21
 81.129417407262
  31
0.0
   0
LINE
   5
28B
 100
AcDbEntity
   8
LEVEL001
 370
15
 100
AcDbLine
   6
CONTINUOUS
  62
2
  10
 183.72791116625
  20
 85.129417407262
  30
0.0
  11
 183.64457783291
  21
 85.212750740595
  31
0.0
   0
LINE
   5
28C
 100
AcDbEntity
   8
LEVEL001
 370
15
 100
AcDbLine
   6
CONTINUOUS
  62
2
  10
 188.28264902037
  20
 81.046084073929
  30
0.0
  11
 188.19931568704
  21
 81.129417407262
  31
0.0
   0
LINE
   5
28D
 100
AcDbEntity
   8
LEVEL001
 370
15
 100
AcDbLine
   6
CONTINUOUS
  62
2
  10
 184.19931568704
  20
 85.129417407262
  30
0.0
  11
 184.11598235370
  21
 85.212750740595
  31
0.0
   0
LINE
   5
28E
 100
AcDbEntity
   8
LEVEL001
 370
15
 100
AcDbLine
   6
CONTINUOUS
  62
2
  10
 188.75405354116
  20
 81.046084073929
  30
0.0
  11
 188.67072020783
  21
 81.129417407262
  31
0.0
   0
LINE
   5
28F
 100
AcDbEntity
   8
LEVEL001
 370
15
 100
AcDbLine
   6
CONTINUOUS
  62
2
  10
 184.67072020783
  20
 85.129417407262
  30
0.0
  11
 184.58738687450
  21
 85.212750740595
  31
0.0
   0
LINE
   5
290
 100
AcDbEntity
   8
LEVEL001
 370
15
 100
AcDbLine
   6
CONTINUOUS
  62
2
  10
 189.22545806195
  20
 81.046084073929
  30
0.0
  11
 189.14212472862
  21
 81.129417407262
  31
0.0
   0
LINE
   5
291
 100
AcDbEntity
   8
LEVEL001
 370
15
 100
AcDbLine
   6
CONTINUOUS
  62
2
  10
 185.14212472862
  20
 85.129417407262
  30
0.0
  11
 185.05879139529
  21
 85.212750740595
  31
0.0
   0
LINE
   5
292
 100
AcDbEntity
   8
LEVEL001
 370
15
 100
AcDbLine
   6
CONTINUOUS
  62
2
  10
 189.69686258274
  20
 81.046084073929
  30
0.0
  11
 189.61352924941
  21
 81.129417407262
  31
0.0
   0
LINE
   5
293
 100
AcDbEntity
   8
LEVEL001
 370
15
 100
AcDbLine
   6
CONTINUOUS
  62
2
  10
 185.61352924941
  20
 85.129417407262
  30
0.0
  11
 185.53019591608
  21
 85.212750740595
  31
0.0
   0
LINE
   5
294
 100
AcDbEntity
   8
LEVEL001
 370
15
 100
AcDbLine
   6
CONTINUOUS
  62
2
  10
 190.16826710353
  20
 81.046084073929
  30
0.0
  11
 190.08493377020
  21
 81.129417407262
  31
0.0
   0
LINE
   5
295
 100
AcDbEntity
   8
LEVEL001
 370
15
 100
AcDbLine
   6
CONTINUOUS
  62
2
  10
 186.08493377020
  20
 85.129417407262
  30
0.0
  11
 186.00160043687
  21
 85.212750740595
  31
0.0
   0
LINE
   5
296
 100
AcDbEntity
   8
LEVEL001
 370
15
 100
AcDbLine
   6
CONTINUOUS
  62
2
  10
 186.55633829099
  20
 85.129417407262
  30
0.0
  11
 186.47300495766
  21
 85.212750740595
  31
0.0
   0
LINE
   5
297
 100
AcDbEntity
   8
LEVEL001
 370
15
 100
AcDbLine
   6
CONTINUOUS
  62
2
  10
 187.02774281178
  20
 85.129417407262
  30
0.0
  11
 186.94440947845
  21
 85.212750740595
  31
0.0
   0
LINE
   5
298
 100
AcDbEntity
   8
LEVEL001
 370
15
 100
AcDbLine
   6
CONTINUOUS
  62
2
  10
 182.62579477088
  20
 81.046084073929
  30
0.0
  11
 182.54246143754
  21
 81.129417407262
  31
0.0
   0
LINE
   5
299
 100
AcDbEntity
   8
LEVEL001
 370
15
 100
AcDbLine
   6
CONTINUOUS
  62
2
  10
 183.09719929167
  20
 81.046084073929
  30
0.0
  11
 183.01386595834
  21
 81.129417407262
  31
0.0
   0
LINE
   5
29A
 100
AcDbEntity
   8
LEVEL001
 370
15
 100
AcDbLine
   6
CONTINUOUS
  62
2
  10
 183.56860381246
  20
 81.046084073929
  30
0.0
  11
 183.48527047913
  21
 81.129417407262
  31
0.0
   0
LINE
   5
29B
 100
AcDbEntity
   8
LEVEL001
 370
15
 100
AcDbLine
   6
CONTINUOUS
  62
2
  10
 184.04000833325
  20
 81.046084073929
  30
0.0
  11
 183.95667499992
  21
 81.129417407262
  31
0.0
   0
LINE
   5
29C
 100
AcDbEntity
   8
LEVEL001
 370
15
 100
AcDbLine
   6
CONTINUOUS
  62
2
  10
 184.51141285404
  20
 81.046084073929
  30
0.0
  11
 184.42807952071
  21
 81.129417407262
  31
0.0
   0
LINE
   5
29D
 100
AcDbEntity
   8
LEVEL001
 370
15
 100
AcDbLine
   6
CONTINUOUS
  62
2
  10
 184.98281737483
  20
 81.046084073929
  30
0.0
  11
 184.89948404150
  21
 81.129417407262
  31
0.0
   0
LINE
   5
29E
 100
AcDbEntity
   8
LEVEL001
 370
15
 100
AcDbLine
   6
CONTINUOUS
  62
2
  10
 185.45422189562
  20
 81.046084073929
  30
0.0
  11
 185.37088856229
  21
 81.129417407262
  31
0.0
   0
LINE
   5
29F
 100
AcDbEntity
   8
LEVEL001
 370
15
 100
AcDbLine
   6
CONTINUOUS
  62
2
  10
 185.92562641642
  20
 81.046084073929
  30
0.0
  11
 185.84229308308
  21
 81.129417407262
  31
0.0
   0
LINE
   5
2A0
 100
AcDbEntity
   8
LEVEL001
 370
15
 100
AcDbLine
   6
CONTINUOUS
  62
2
  10
 186.39703093721
  20
 81.046084073929
  30
0.0
  11
 186.31369760387
  21
 81.129417407262
  31
0.0
   0
LINE
   5
2A1
 100
AcDbEntity
   8
LEVEL001
 370
15
 100
AcDbLine
   6
CONTINUOUS
  62
2
  10
 182.31369760387
  20
 85.129417407262
  30
0.0
  11
 182.23036427054
  21
 85.212750740595
  31
0.0
   0
ARC
   5
2A2
 100
AcDbEntity
   8
LEVEL002
 370
30
   6
CONTINUOUS
  62
7
 100
AcDbCircle
  10
 235.52111103177
  20
 23.462750740595
  30
0.0
  40
 1.6666666666667
 100
AcDbArc
  50
 90.000000000000
  51
 180.00000000000
   0
LINE
   5
2A3
 100
AcDbEntity
   8
LEVEL002
 370
30
 100
AcDbLine
   6
CONTINUOUS
  62
7
  10
 245.52111103177
  20
 20.462750740595
  30
0.0
  11
 245.52111103177
  21
 22.546084073929
  31
0.0
   0
LINE
   5
2A4
 100
AcDbEntity
   8
LEVEL002
 370
30
 100
AcDbLine
   6
CONTINUOUS
  62
7
  10
 245.52111103177
  20
 22.546084073929
  30
0.0
  11
 233.85444436511
  21
 22.546084073929
  31
0.0
   0
LINE
   5
2A5
 100
AcDbEntity
   8
LEVEL002
 370
30
 100
AcDbLine
   6
CONTINUOUS
  62
7
  10
 233.85444436511
  20
 22.546084073929
  30
0.0
  11
 233.85444436511
  21
 23.462750740595
  31
0.0
   0
ARC
   5
2A6
 100
AcDbEntity
   8
LEVEL002
 370
30
   6
CONTINUOUS
  62
7
 100
AcDbCircle
  10
 244.18777769844
  20
 20.462750740595
  30
0.0
  40
 4.6666666666667
 100
AcDbArc
  50
0.0
  51
 90.000000000000
   0
ARC
   5
2A7
 100
AcDbEntity
   8
LEVEL002
 370
30
   6
CONTINUOUS
  62
7
 100
AcDbCircle
  10
 235.52111103177
  20
 17.462750740595
  30
0.0
  40
 1.6666666666667
 100
AcDbArc
  50
 180.00000000000
  51
 269.99999999999
   0
LINE
   5
2A8
 100
AcDbEntity
   8
LEVEL002
 370
30
 100
AcDbLine
   6
CONTINUOUS
  62
7
  10
 245.52111103177
  20
 20.462750740595
  30
0.0
  11
 245.52111103177
  21
 18.379417407262
  31
0.0
   0
LINE
   5
2A9
 100
AcDbEntity
   8
LEVEL002
 370
30
 100
AcDbLine
   6
CONTINUOUS
  62
7
  10
 245.52111103177
  20
 18.379417407262
  30
0.0
  11
 233.85444436511
  21
 18.379417407262
  31
0.0
   0
LINE
   5
2AA
 100
AcDbEntity
   8
LEVEL002
 370
30
 100
AcDbLine
   6
CONTINUOUS
  62
7
  10
 233.85444436511
  20
 18.379417407262
  30
0.0
  11
 233.85444436511
  21
 17.462750740595
  31
0.0
   0
ARC
   5
2AB
 100
AcDbEntity
   8
LEVEL002
 370
30
   6
CONTINUOUS
  62
7
 100
AcDbCircle
  10
 244.18777769844
  20
 20.462750740595
  30
0.0
  40
 4.6666666666667
 100
AcDbArc
  50
 270.00000000000
  51
0.0
   0
LINE
   5
2AC
 100
AcDbEntity
   8
LEVEL002
 370
30
 100
AcDbLine
   6
CONTINUOUS
  62
7
  10
 235.52111103177
  20
 25.129417407262
  30
0.0
  11
 244.18777769844
  21
 25.129417407262
  31
0.0
   0
LINE
   5
2AD
 100
AcDbEntity
   8
LEVEL002
 370
30
 100
AcDbLine
   6
CONTINUOUS
  62
7
  10
 235.52111103177
  20
 15.796084073929
  30
0.0
  11
 244.18777769844
  21
 15.796084073929
  31
0.0
   0
ARC
   5
2AE
 100
AcDbEntity
   8
LEVEL001
 370
30
   6
CONTINUOUS
  62
7
 100
AcDbCircle
  10
 235.52111103177
  20
 23.462750740595
  30
0.0
  40
 1.6666666666667
 100
AcDbArc
  50
 90.000000000000
  51
 180.00000000000
   0
LINE
   5
2AF
 100
AcDbEntity
   8
LEVEL001
 370
30
 100
AcDbLine
   6
CONTINUOUS
  62
7
  10
 245.52111103177
  20
 20.462750740595
  30
0.0
  11
 245.52111103177
  21
 22.546084073929
  31
0.0
   0
LINE
   5
2B0
 100
AcDbEntity
   8
LEVEL001
 370
30
 100
AcDbLine
   6
CONTINUOUS
  62
7
  10
 245.52111103177
  20
 22.546084073929
  30
0.0
  11
 233.85444436511
  21
 22.546084073929
  31
0.0
   0
LINE
   5
2B1
 100
AcDbEntity
   8
LEVEL001
 370
30
 100
AcDbLine
   6
CONTINUOUS
  62
7
  10
 233.85444436511
  20
 22.546084073929
  30
0.0
  11
 233.85444436511
  21
 23.462750740595
  31
0.0
   0
ARC
   5
2B2
 100
AcDbEntity
   8
LEVEL001
 370
30
   6
CONTINUOUS
  62
7
 100
AcDbCircle
  10
 244.18777769844
  20
 20.462750740595
  30
0.0
  40
 4.6666666666667
 100
AcDbArc
  50
0.0
  51
 90.000000000000
   0
ARC
   5
2B3
 100
AcDbEntity
   8
LEVEL001
 370
30
   6
CONTINUOUS
  62
7
 100
AcDbCircle
  10
 235.52111103177
  20
 17.462750740595
  30
0.0
  40
 1.6666666666667
 100
AcDbArc
  50
 180.00000000000
  51
 269.99999999999
   0
LINE
   5
2B4
 100
AcDbEntity
   8
LEVEL001
 370
30
 100
AcDbLine
   6
CONTINUOUS
  62
7
  10
 245.52111103177
  20
 20.462750740595
  30
0.0
  11
 245.52111103177
  21
 18.379417407262
  31
0.0
   0
LINE
   5
2B5
 100
AcDbEntity
   8
LEVEL001
 370
30
 100
AcDbLine
   6
CONTINUOUS
  62
7
  10
 245.52111103177
  20
 18.379417407262
  30
0.0
  11
 233.85444436511
  21
 18.379417407262
  31
0.0
   0
LINE
   5
2B6
 100
AcDbEntity
   8
LEVEL001
 370
30
 100
AcDbLine
   6
CONTINUOUS
  62
7
  10
 233.85444436511
  20
 18.379417407262
  30
0.0
  11
 233.85444436511
  21
 17.462750740595
  31
0.0
   0
ARC
   5
2B7
 100
AcDbEntity
   8
LEVEL001
 370
30
   6
CONTINUOUS
  62
7
 100
AcDbCircle
  10
 244.18777769844
  20
 20.462750740595
  30
0.0
  40
 4.6666666666667
 100
AcDbArc
  50
 270.00000000000
  51
0.0
   0
LINE
   5
2B8
 100
AcDbEntity
   8
LEVEL001
 370
30
 100
AcDbLine
   6
CONTINUOUS
  62
7
  10
 235.52111103177
  20
 25.129417407262
  30
0.0
  11
 244.18777769844
  21
 25.129417407262
  31
0.0
   0
LINE
   5
2B9
 100
AcDbEntity
   8
LEVEL001
 370
30
 100
AcDbLine
   6
CONTINUOUS
  62
7
  10
 235.52111103177
  20
 15.796084073929
  30
0.0
  11
 244.18777769844
  21
 15.796084073929
  31
0.0
   0
ARC
   5
2BA
 100
AcDbEntity
   8
LEVEL002
 370
30
   6
CONTINUOUS
  62
7
 100
AcDbCircle
  10
 188.85444436511
  20
 23.462750740595
  30
0.0
  40
 1.6666666666667
 100
AcDbArc
  50
0.0
  51
 90.000000000000
   0
LINE
   5
2BB
 100
AcDbEntity
   8
LEVEL002
 370
30
 100
AcDbLine
   6
CONTINUOUS
  62
7
  10
 178.85444436511
  20
 20.462750740595
  30
0.0
  11
 178.85444436511
  21
 22.546084073929
  31
0.0
   0
LINE
   5
2BC
 100
AcDbEntity
   8
LEVEL002
 370
30
 100
AcDbLine
   6
CONTINUOUS
  62
7
  10
 178.85444436511
  20
 22.546084073929
  30
0.0
  11
 190.52111103177
  21
 22.546084073929
  31
0.0
   0
LINE
   5
2BD
 100
AcDbEntity
   8
LEVEL002
 370
30
 100
AcDbLine
   6
CONTINUOUS
  62
7
  10
 190.52111103177
  20
 22.546084073929
  30
0.0
  11
 190.52111103177
  21
 23.462750740595
  31
0.0
   0
ARC
   5
2BE
 100
AcDbEntity
   8
LEVEL002
 370
30
   6
CONTINUOUS
  62
7
 100
AcDbCircle
  10
 180.18777769844
  20
 20.462750740595
  30
0.0
  40
 4.6666666666667
 100
AcDbArc
  50
 90.000000000000
  51
 180.00000000000
   0
ARC
   5
2BF
 100
AcDbEntity
   8
LEVEL002
 370
30
   6
CONTINUOUS
  62
7
 100
AcDbCircle
  10
 188.85444436511
  20
 17.462750740595
  30
0.0
  40
 1.6666666666667
 100
AcDbArc
  50
 270.00000000001
  51
0.0
   0
LINE
   5
2C0
 100
AcDbEntity
   8
LEVEL002
 370
30
 100
AcDbLine
   6
CONTINUOUS
  62
7
  10
 178.85444436511
  20
 20.462750740595
  30
0.0
  11
 178.85444436511
  21
 18.379417407262
  31
0.0
   0
LINE
   5
2C1
 100
AcDbEntity
   8
LEVEL002
 370
30
 100
AcDbLine
   6
CONTINUOUS
  62
7
  10
 178.85444436511
  20
 18.379417407262
  30
0.0
  11
 190.52111103177
  21
 18.379417407262
  31
0.0
   0
LINE
   5
2C2
 100
AcDbEntity
   8
LEVEL002
 370
30
 100
AcDbLine
   6
CONTINUOUS
  62
7
  10
 190.52111103177
  20
 18.379417407262
  30
0.0
  11
 190.52111103177
  21
 17.462750740595
  31
0.0
   0
ARC
   5
2C3
 100
AcDbEntity
   8
LEVEL002
 370
30
   6
CONTINUOUS
  62
7
 100
AcDbCircle
  10
 180.18777769844
  20
 20.462750740595
  30
0.0
  40
 4.6666666666667
 100
AcDbArc
  50
 180.00000000000
  51
 270.00000000000
   0
LINE
   5
2C4
 100
AcDbEntity
   8
LEVEL002
 370
30
 100
AcDbLine
   6
CONTINUOUS
  62
7
  10
 188.85444436511
  20
 25.129417407262
  30
0.0
  11
 180.18777769844
  21
 25.129417407262
  31
0.0
   0
LINE
   5
2C5
 100
AcDbEntity
   8
LEVEL002
 370
30
 100
AcDbLine
   6
CONTINUOUS
  62
7
  10
 188.85444436511
  20
 15.796084073929
  30
0.0
  11
 180.18777769844
  21
 15.796084073929
  31
0.0
   0
ARC
   5
2C6
 100
AcDbEntity
   8
LEVEL001
 370
30
   6
CONTINUOUS
  62
7
 100
AcDbCircle
  10
 188.85444436511
  20
 23.462750740595
  30
0.0
  40
 1.6666666666667
 100
AcDbArc
  50
0.0
  51
 90.000000000000
   0
LINE
   5
2C7
 100
AcDbEntity
   8
LEVEL001
 370
30
 100
AcDbLine
   6
CONTINUOUS
  62
7
  10
 178.85444436511
  20
 20.462750740595
  30
0.0
  11
 178.85444436511
  21
 22.546084073929
  31
0.0
   0
LINE
   5
2C8
 100
AcDbEntity
   8
LEVEL001
 370
30
 100
AcDbLine
   6
CONTINUOUS
  62
7
  10
 178.85444436511
  20
 22.546084073929
  30
0.0
  11
 190.52111103177
  21
 22.546084073929
  31
0.0
   0
LINE
   5
2C9
 100
AcDbEntity
   8
LEVEL001
 370
30
 100
AcDbLine
   6
CONTINUOUS
  62
7
  10
 190.52111103177
  20
 22.546084073929
  30
0.0
  11
 190.52111103177
  21
 23.462750740595
  31
0.0
   0
ARC
   5
2CA
 100
AcDbEntity
   8
LEVEL001
 370
30
   6
CONTINUOUS
  62
7
 100
AcDbCircle
  10
 180.18777769844
  20
 20.462750740595
  30
0.0
  40
 4.6666666666667
 100
AcDbArc
  50
 90.000000000000
  51
 180.00000000000
   0
ARC
   5
2CB
 100
AcDbEntity
   8
LEVEL001
 370
30
   6
CONTINUOUS
  62
7
 100
AcDbCircle
  10
 188.85444436511
  20
 17.462750740595
  30
0.0
  40
 1.6666666666667
 100
AcDbArc
  50
 270.00000000001
  51
0.0
   0
LINE
   5
2CC
 100
AcDbEntity
   8
LEVEL001
 370
30
 100
AcDbLine
   6
CONTINUOUS
  62
7
  10
 178.85444436511
  20
 20.462750740595
  30
0.0
  11
 178.85444436511
  21
 18.379417407262
  31
0.0
   0
LINE
   5
2CD
 100
AcDbEntity
   8
LEVEL001
 370
30
 100
AcDbLine
   6
CONTINUOUS
  62
7
  10
 178.85444436511
  20
 18.379417407262
  30
0.0
  11
 190.52111103177
  21
 18.379417407262
  31
0.0
   0
LINE
   5
2CE
 100
AcDbEntity
   8
LEVEL001
 370
30
 100
AcDbLine
   6
CONTINUOUS
  62
7
  10
 190.52111103177
  20
 18.379417407262
  30
0.0
  11
 190.52111103177
  21
 17.462750740595
  31
0.0
   0
ARC
   5
2CF
 100
AcDbEntity
   8
LEVEL001
 370
30
   6
CONTINUOUS
  62
7
 100
AcDbCircle
  10
 180.18777769844
  20
 20.462750740595
  30
0.0
  40
 4.6666666666667
 100
AcDbArc
  50
 180.00000000000
  51
 270.00000000000
   0
LINE
   5
2D0
 100
AcDbEntity
   8
LEVEL001
 370
30
 100
AcDbLine
   6
CONTINUOUS
  62
7
  10
 188.85444436511
  20
 25.129417407262
  30
0.0
  11
 180.18777769844
  21
 25.129417407262
  31
0.0
   0
LINE
   5
2D1
 100
AcDbEntity
   8
LEVEL001
 370
30
 100
AcDbLine
   6
CONTINUOUS
  62
7
  10
 188.85444436511
  20
 15.796084073929
  30
0.0
  11
 180.18777769844
  21
 15.796084073929
  31
0.0
   0
LINE
   5
2D2
 100
AcDbEntity
   8
LEVEL001
 370
15
 100
AcDbLine
   6
CONTINUOUS
  62
2
  10
 233.85444436511
  20
 22.546084073929
  30
0.0
  11
 242.18777769844
  21
 22.546084073929
  31
0.0
   0
LINE
   5
2D3
 100
AcDbEntity
   8
LEVEL001
 370
15
 100
AcDbLine
   6
CONTINUOUS
  62
2
  10
 242.18777769844
  20
 22.546084073929
  30
0.0
  11
 242.18777769844
  21
 22.462750740595
  31
0.0
   0
LINE
   5
2D4
 100
AcDbEntity
   8
LEVEL001
 370
15
 100
AcDbLine
   6
CONTINUOUS
  62
2
  10
 242.18777769844
  20
 22.462750740595
  30
0.0
  11
 233.85444436511
  21
 22.462750740595
  31
0.0
   0
LINE
   5
2D5
 100
AcDbEntity
   8
LEVEL001
 370
15
 100
AcDbLine
   6
CONTINUOUS
  62
2
  10
 233.85444436511
  20
 22.462750740595
  30
0.0
  11
 233.85444436511
  21
 22.546084073929
  31
0.0
   0
LINE
   5
2D6
 100
AcDbEntity
   8
LEVEL001
 370
15
 100
AcDbLine
   6
CONTINUOUS
  62
2
  10
 233.85444436511
  20
 18.379417407262
  30
0.0
  11
 242.18777769844
  21
 18.379417407262
  31
0.0
   0
LINE
   5
2D7
 100
AcDbEntity
   8
LEVEL001
 370
15
 100
AcDbLine
   6
CONTINUOUS
  62
2
  10
 242.18777769844
  20
 18.379417407262
  30
0.0
  11
 242.18777769844
  21
 18.462750740595
  31
0.0
   0
LINE
   5
2D8
 100
AcDbEntity
   8
LEVEL001
 370
15
 100
AcDbLine
   6
CONTINUOUS
  62
2
  10
 242.18777769844
  20
 18.462750740595
  30
0.0
  11
 233.85444436511
  21
 18.462750740595
  31
0.0
   0
LINE
   5
2D9
 100
AcDbEntity
   8
LEVEL001
 370
15
 100
AcDbLine
   6
CONTINUOUS
  62
2
  10
 233.85444436511
  20
 18.462750740595
  30
0.0
  11
 233.85444436511
  21
 18.379417407262
  31
0.0
   0
LINE
   5
2DA
 100
AcDbEntity
   8
LEVEL001
 370
15
 100
AcDbLine
   6
CONTINUOUS
  62
2
  10
 236.40500354352
  20
 18.462750740595
  30
0.0
  11
 236.48833687685
  21
 18.379417407262
  31
0.0
   0
LINE
   5
2DB
 100
AcDbEntity
   8
LEVEL001
 370
15
 100
AcDbLine
   6
CONTINUOUS
  62
2
  10
 235.93359902272
  20
 18.462750740595
  30
0.0
  11
 236.01693235606
  21
 18.379417407262
  31
0.0
   0
LINE
   5
2DC
 100
AcDbEntity
   8
LEVEL001
 370
15
 100
AcDbLine
   6
CONTINUOUS
  62
2
  10
 235.46219450193
  20
 18.462750740595
  30
0.0
  11
 235.54552783527
  21
 18.379417407262
  31
0.0
   0
LINE
   5
2DD
 100
AcDbEntity
   8
LEVEL001
 370
15
 100
AcDbLine
   6
CONTINUOUS
  62
2
  10
 234.99078998114
  20
 18.462750740595
  30
0.0
  11
 235.07412331448
  21
 18.379417407262
  31
0.0
   0
LINE
   5
2DE
 100
AcDbEntity
   8
LEVEL001
 370
15
 100
AcDbLine
   6
CONTINUOUS
  62
2
  10
 234.51938546035
  20
 18.462750740595
  30
0.0
  11
 234.60271879368
  21
 18.379417407262
  31
0.0
   0
LINE
   5
2DF
 100
AcDbEntity
   8
LEVEL001
 370
15
 100
AcDbLine
   6
CONTINUOUS
  62
2
  10
 234.04798093956
  20
 18.462750740595
  30
0.0
  11
 234.13131427289
  21
 18.379417407262
  31
0.0
   0
LINE
   5
2E0
 100
AcDbEntity
   8
LEVEL001
 370
15
 100
AcDbLine
   6
CONTINUOUS
  62
2
  10
 236.87640806431
  20
 18.462750740595
  30
0.0
  11
 236.95974139764
  21
 18.379417407262
  31
0.0
   0
LINE
   5
2E1
 100
AcDbEntity
   8
LEVEL001
 370
15
 100
AcDbLine
   6
CONTINUOUS
  62
2
  10
 237.50711993888
  20
 22.546084073929
  30
0.0
  11
 237.59045327222
  21
 22.462750740595
  31
0.0
   0
LINE
   5
2E2
 100
AcDbEntity
   8
LEVEL001
 370
15
 100
AcDbLine
   6
CONTINUOUS
  62
2
  10
 241.59045327222
  20
 18.462750740595
  30
0.0
  11
 241.67378660555
  21
 18.379417407262
  31
0.0
   0
LINE
   5
2E3
 100
AcDbEntity
   8
LEVEL001
 370
15
 100
AcDbLine
   6
CONTINUOUS
  62
2
  10
 237.03571541809
  20
 22.546084073929
  30
0.0
  11
 237.11904875143
  21
 22.462750740595
  31
0.0
   0
LINE
   5
2E4
 100
AcDbEntity
   8
LEVEL001
 370
15
 100
AcDbLine
   6
CONTINUOUS
  62
2
  10
 241.11904875143
  20
 18.462750740595
  30
0.0
  11
 241.20238208476
  21
 18.379417407262
  31
0.0
   0
LINE
   5
2E5
 100
AcDbEntity
   8
LEVEL001
 370
15
 100
AcDbLine
   6
CONTINUOUS
  62
2
  10
 236.56431089730
  20
 22.546084073929
  30
0.0
  11
 236.64764423063
  21
 22.462750740595
  31
0.0
   0
LINE
   5
2E6
 100
AcDbEntity
   8
LEVEL001
 370
15
 100
AcDbLine
   6
CONTINUOUS
  62
2
  10
 240.64764423063
  20
 18.462750740595
  30
0.0
  11
 240.73097756397
  21
 18.379417407262
  31
0.0
   0
LINE
   5
2E7
 100
AcDbEntity
   8
LEVEL001
 370
15
 100
AcDbLine
   6
CONTINUOUS
  62
2
  10
 236.09290637651
  20
 22.546084073929
  30
0.0
  11
 236.17623970984
  21
 22.462750740595
  31
0.0
   0
LINE
   5
2E8
 100
AcDbEntity
   8
LEVEL001
 370
15
 100
AcDbLine
   6
CONTINUOUS
  62
2
  10
 240.17623970984
  20
 18.462750740595
  30
0.0
  11
 240.25957304318
  21
 18.379417407262
  31
0.0
   0
LINE
   5
2E9
 100
AcDbEntity
   8
LEVEL001
 370
15
 100
AcDbLine
   6
CONTINUOUS
  62
2
  10
 235.62150185572
  20
 22.546084073929
  30
0.0
  11
 235.70483518905
  21
 22.462750740595
  31
0.0
   0
LINE
   5
2EA
 100
AcDbEntity
   8
LEVEL001
 370
15
 100
AcDbLine
   6
CONTINUOUS
  62
2
  10
 239.70483518905
  20
 18.462750740595
  30
0.0
  11
 239.78816852239
  21
 18.379417407262
  31
0.0
   0
LINE
   5
2EB
 100
AcDbEntity
   8
LEVEL001
 370
15
 100
AcDbLine
   6
CONTINUOUS
  62
2
  10
 235.15009733493
  20
 22.546084073929
  30
0.0
  11
 235.23343066826
  21
 22.462750740595
  31
0.0
   0
LINE
   5
2EC
 100
AcDbEntity
   8
LEVEL001
 370
15
 100
AcDbLine
   6
CONTINUOUS
  62
2
  10
 239.23343066826
  20
 18.462750740595
  30
0.0
  11
 239.31676400159
  21
 18.379417407262
  31
0.0
   0
LINE
   5
2ED
 100
AcDbEntity
   8
LEVEL001
 370
15
 100
AcDbLine
   6
CONTINUOUS
  62
2
  10
 234.67869281414
  20
 22.546084073929
  30
0.0
  11
 234.76202614747
  21
 22.462750740595
  31
0.0
   0
LINE
   5
2EE
 100
AcDbEntity
   8
LEVEL001
 370
15
 100
AcDbLine
   6
CONTINUOUS
  62
2
  10
 238.76202614747
  20
 18.462750740595
  30
0.0
  11
 238.84535948080
  21
 18.379417407262
  31
0.0
   0
LINE
   5
2EF
 100
AcDbEntity
   8
LEVEL001
 370
15
 100
AcDbLine
   6
CONTINUOUS
  62
2
  10
 234.20728829335
  20
 22.546084073929
  30
0.0
  11
 234.29062162668
  21
 22.462750740595
  31
0.0
   0
LINE
   5
2F0
 100
AcDbEntity
   8
LEVEL001
 370
15
 100
AcDbLine
   6
CONTINUOUS
  62
2
  10
 238.29062162668
  20
 18.462750740595
  30
0.0
  11
 238.37395496001
  21
 18.379417407262
  31
0.0
   0
LINE
   5
2F1
 100
AcDbEntity
   8
LEVEL001
 370
15
 100
AcDbLine
   6
CONTINUOUS
  62
2
  10
 237.81921710589
  20
 18.462750740595
  30
0.0
  11
 237.90255043922
  21
 18.379417407262
  31
0.0
   0
LINE
   5
2F2
 100
AcDbEntity
   8
LEVEL001
 370
15
 100
AcDbLine
   6
CONTINUOUS
  62
2
  10
 237.34781258510
  20
 18.462750740595
  30
0.0
  11
 237.43114591843
  21
 18.379417407262
  31
0.0
   0
LINE
   5
2F3
 100
AcDbEntity
   8
LEVEL001
 370
15
 100
AcDbLine
   6
CONTINUOUS
  62
2
  10
 241.74976062600
  20
 22.546084073929
  30
0.0
  11
 241.83309395934
  21
 22.462750740595
  31
0.0
   0
LINE
   5
2F4
 100
AcDbEntity
   8
LEVEL001
 370
15
 100
AcDbLine
   6
CONTINUOUS
  62
2
  10
 241.27835610521
  20
 22.546084073929
  30
0.0
  11
 241.36168943854
  21
 22.462750740595
  31
0.0
   0
LINE
   5
2F5
 100
AcDbEntity
   8
LEVEL001
 370
15
 100
AcDbLine
   6
CONTINUOUS
  62
2
  10
 240.80695158442
  20
 22.546084073929
  30
0.0
  11
 240.89028491775
  21
 22.462750740595
  31
0.0
   0
LINE
   5
2F6
 100
AcDbEntity
   8
LEVEL001
 370
15
 100
AcDbLine
   6
CONTINUOUS
  62
2
  10
 240.33554706363
  20
 22.546084073929
  30
0.0
  11
 240.41888039696
  21
 22.462750740595
  31
0.0
   0
LINE
   5
2F7
 100
AcDbEntity
   8
LEVEL001
 370
15
 100
AcDbLine
   6
CONTINUOUS
  62
2
  10
 239.86414254284
  20
 22.546084073929
  30
0.0
  11
 239.94747587617
  21
 22.462750740595
  31
0.0
   0
LINE
   5
2F8
 100
AcDbEntity
   8
LEVEL001
 370
15
 100
AcDbLine
   6
CONTINUOUS
  62
2
  10
 239.39273802205
  20
 22.546084073929
  30
0.0
  11
 239.47607135538
  21
 22.462750740595
  31
0.0
   0
LINE
   5
2F9
 100
AcDbEntity
   8
LEVEL001
 370
15
 100
AcDbLine
   6
CONTINUOUS
  62
2
  10
 238.92133350126
  20
 22.546084073929
  30
0.0
  11
 239.00466683459
  21
 22.462750740595
  31
0.0
   0
LINE
   5
2FA
 100
AcDbEntity
   8
LEVEL001
 370
15
 100
AcDbLine
   6
CONTINUOUS
  62
2
  10
 238.44992898047
  20
 22.546084073929
  30
0.0
  11
 238.53326231380
  21
 22.462750740595
  31
0.0
   0
LINE
   5
2FB
 100
AcDbEntity
   8
LEVEL001
 370
15
 100
AcDbLine
   6
CONTINUOUS
  62
2
  10
 237.97852445967
  20
 22.546084073929
  30
0.0
  11
 238.06185779301
  21
 22.462750740595
  31
0.0
   0
LINE
   5
2FC
 100
AcDbEntity
   8
LEVEL001
 370
15
 100
AcDbLine
   6
CONTINUOUS
  62
2
  10
 242.06185779301
  20
 18.462750740595
  30
0.0
  11
 242.14519112634
  21
 18.379417407262
  31
0.0
   0
LINE
   5
2FD
 100
AcDbEntity
   8
LEVEL001
 370
15
 100
AcDbLine
   6
CONTINUOUS
  62
2
  10
 190.52111103177
  20
 22.546084073929
  30
0.0
  11
 182.18777769844
  21
 22.546084073929
  31
0.0
   0
LINE
   5
2FE
 100
AcDbEntity
   8
LEVEL001
 370
15
 100
AcDbLine
   6
CONTINUOUS
  62
2
  10
 182.18777769844
  20
 22.546084073929
  30
0.0
  11
 182.18777769844
  21
 22.462750740595
  31
0.0
   0
LINE
   5
2FF
 100
AcDbEntity
   8
LEVEL001
 370
15
 100
AcDbLine
   6
CONTINUOUS
  62
2
  10
 182.18777769844
  20
 22.462750740595
  30
0.0
  11
 190.52111103177
  21
 22.462750740595
  31
0.0
   0
LINE
   5
300
 100
AcDbEntity
   8
LEVEL001
 370
15
 100
AcDbLine
   6
CONTINUOUS
  62
2
  10
 190.52111103177
  20
 22.462750740595
  30
0.0
  11
 190.52111103177
  21
 22.546084073929
  31
0.0
   0
LINE
   5
301
 100
AcDbEntity
   8
LEVEL001
 370
15
 100
AcDbLine
   6
CONTINUOUS
  62
2
  10
 190.52111103177
  20
 18.379417407262
  30
0.0
  11
 182.18777769844
  21
 18.379417407262
  31
0.0
   0
LINE
   5
302
 100
AcDbEntity
   8
LEVEL001
 370
15
 100
AcDbLine
   6
CONTINUOUS
  62
2
  10
 182.18777769844
  20
 18.379417407262
  30
0.0
  11
 182.18777769844
  21
 18.462750740595
  31
0.0
   0
LINE
   5
303
 100
AcDbEntity
   8
LEVEL001
 370
15
 100
AcDbLine
   6
CONTINUOUS
  62
2
  10
 182.18777769844
  20
 18.462750740595
  30
0.0
  11
 190.52111103177
  21
 18.462750740595
  31
0.0
   0
LINE
   5
304
 100
AcDbEntity
   8
LEVEL001
 370
15
 100
AcDbLine
   6
CONTINUOUS
  62
2
  10
 190.52111103177
  20
 18.462750740595
  30
0.0
  11
 190.52111103177
  21
 18.379417407262
  31
0.0
   0
LINE
   5
305
 100
AcDbEntity
   8
LEVEL001
 370
15
 100
AcDbLine
   6
CONTINUOUS
  62
2
  10
 187.97055185337
  20
 18.462750740595
  30
0.0
  11
 187.88721852003
  21
 18.379417407262
  31
0.0
   0
LINE
   5
306
 100
AcDbEntity
   8
LEVEL001
 370
15
 100
AcDbLine
   6
CONTINUOUS
  62
2
  10
 188.44195637416
  20
 18.462750740595
  30
0.0
  11
 188.35862304082
  21
 18.379417407262
  31
0.0
   0
LINE
   5
307
 100
AcDbEntity
   8
LEVEL001
 370
15
 100
AcDbLine
   6
CONTINUOUS
  62
2
  10
 188.91336089495
  20
 18.462750740595
  30
0.0
  11
 188.83002756161
  21
 18.379417407262
  31
0.0
   0
LINE
   5
308
 100
AcDbEntity
   8
LEVEL001
 370
15
 100
AcDbLine
   6
CONTINUOUS
  62
2
  10
 189.38476541574
  20
 18.462750740595
  30
0.0
  11
 189.30143208241
  21
 18.379417407262
  31
0.0
   0
LINE
   5
309
 100
AcDbEntity
   8
LEVEL001
 370
15
 100
AcDbLine
   6
CONTINUOUS
  62
2
  10
 189.85616993653
  20
 18.462750740595
  30
0.0
  11
 189.77283660320
  21
 18.379417407262
  31
0.0
   0
LINE
   5
30A
 100
AcDbEntity
   8
LEVEL001
 370
15
 100
AcDbLine
   6
CONTINUOUS
  62
2
  10
 190.32757445732
  20
 18.462750740595
  30
0.0
  11
 190.24424112399
  21
 18.379417407262
  31
0.0
   0
LINE
   5
30B
 100
AcDbEntity
   8
LEVEL001
 370
15
 100
AcDbLine
   6
CONTINUOUS
  62
2
  10
 187.49914733257
  20
 18.462750740595
  30
0.0
  11
 187.41581399924
  21
 18.379417407262
  31
0.0
   0
LINE
   5
30C
 100
AcDbEntity
   8
LEVEL001
 370
15
 100
AcDbLine
   6
CONTINUOUS
  62
2
  10
 186.86843545800
  20
 22.546084073929
  30
0.0
  11
 186.78510212466
  21
 22.462750740595
  31
0.0
   0
LINE
   5
30D
 100
AcDbEntity
   8
LEVEL001
 370
15
 100
AcDbLine
   6
CONTINUOUS
  62
2
  10
 182.78510212466
  20
 18.462750740595
  30
0.0
  11
 182.70176879133
  21
 18.379417407262
  31
0.0
   0
LINE
   5
30E
 100
AcDbEntity
   8
LEVEL001
 370
15
 100
AcDbLine
   6
CONTINUOUS
  62
2
  10
 187.33983997879
  20
 22.546084073929
  30
0.0
  11
 187.25650664546
  21
 22.462750740595
  31
0.0
   0
LINE
   5
30F
 100
AcDbEntity
   8
LEVEL001
 370
15
 100
AcDbLine
   6
CONTINUOUS
  62
2
  10
 183.25650664546
  20
 18.462750740595
  30
0.0
  11
 183.17317331212
  21
 18.379417407262
  31
0.0
   0
LINE
   5
310
 100
AcDbEntity
   8
LEVEL001
 370
15
 100
AcDbLine
   6
CONTINUOUS
  62
2
  10
 187.81124449958
  20
 22.546084073929
  30
0.0
  11
 187.72791116625
  21
 22.462750740595
  31
0.0
   0
LINE
   5
311
 100
AcDbEntity
   8
LEVEL001
 370
15
 100
AcDbLine
   6
CONTINUOUS
  62
2
  10
 183.72791116625
  20
 18.462750740595
  30
0.0
  11
 183.64457783291
  21
 18.379417407262
  31
0.0
   0
LINE
   5
312
 100
AcDbEntity
   8
LEVEL001
 370
15
 100
AcDbLine
   6
CONTINUOUS
  62
2
  10
 188.28264902037
  20
 22.546084073929
  30
0.0
  11
 188.19931568704
  21
 22.462750740595
  31
0.0
   0
LINE
   5
313
 100
AcDbEntity
   8
LEVEL001
 370
15
 100
AcDbLine
   6
CONTINUOUS
  62
2
  10
 184.19931568704
  20
 18.462750740595
  30
0.0
  11
 184.11598235370
  21
 18.379417407262
  31
0.0
   0
LINE
   5
314
 100
AcDbEntity
   8
LEVEL001
 370
15
 100
AcDbLine
   6
CONTINUOUS
  62
2
  10
 188.75405354116
  20
 22.546084073929
  30
0.0
  11
 188.67072020783
  21
 22.462750740595
  31
0.0
   0
LINE
   5
315
 100
AcDbEntity
   8
LEVEL001
 370
15
 100
AcDbLine
   6
CONTINUOUS
  62
2
  10
 184.67072020783
  20
 18.462750740595
  30
0.0
  11
 184.58738687450
  21
 18.379417407262
  31
0.0
   0
LINE
   5
316
 100
AcDbEntity
   8
LEVEL001
 370
15
 100
AcDbLine
   6
CONTINUOUS
  62
2
  10
 189.22545806195
  20
 22.546084073929
  30
0.0
  11
 189.14212472862
  21
 22.462750740595
  31
0.0
   0
LINE
   5
317
 100
AcDbEntity
   8
LEVEL001
 370
15
 100
AcDbLine
   6
CONTINUOUS
  62
2
  10
 185.14212472862
  20
 18.462750740595
  30
0.0
  11
 185.05879139529
  21
 18.379417407262
  31
0.0
   0
LINE
   5
318
 100
AcDbEntity
   8
LEVEL001
 370
15
 100
AcDbLine
   6
CONTINUOUS
  62
2
  10
 189.69686258274
  20
 22.546084073929
  30
0.0
  11
 189.61352924941
  21
 22.462750740595
  31
0.0
   0
LINE
   5
319
 100
AcDbEntity
   8
LEVEL001
 370
15
 100
AcDbLine
   6
CONTINUOUS
  62
2
  10
 185.61352924941
  20
 18.462750740595
  30
0.0
  11
 185.53019591608
  21
 18.379417407262
  31
0.0
   0
LINE
   5
31A
 100
AcDbEntity
   8
LEVEL001
 370
15
 100
AcDbLine
   6
CONTINUOUS
  62
2
  10
 190.16826710353
  20
 22.546084073929
  30
0.0
  11
 190.08493377020
  21
 22.462750740595
  31
0.0
   0
LINE
   5
31B
 100
AcDbEntity
   8
LEVEL001
 370
15
 100
AcDbLine
   6
CONTINUOUS
  62
2
  10
 186.08493377020
  20
 18.462750740595
  30
0.0
  11
 186.00160043687
  21
 18.379417407262
  31
0.0
   0
LINE
   5
31C
 100
AcDbEntity
   8
LEVEL001
 370
15
 100
AcDbLine
   6
CONTINUOUS
  62
2
  10
 186.55633829099
  20
 18.462750740595
  30
0.0
  11
 186.47300495766
  21
 18.379417407262
  31
0.0
   0
LINE
   5
31D
 100
AcDbEntity
   8
LEVEL001
 370
15
 100
AcDbLine
   6
CONTINUOUS
  62
2
  10
 187.02774281178
  20
 18.462750740595
  30
0.0
  11
 186.94440947845
  21
 18.379417407262
  31
0.0
   0
LINE
   5
31E
 100
AcDbEntity
   8
LEVEL001
 370
15
 100
AcDbLine
   6
CONTINUOUS
  62
2
  10
 182.62579477088
  20
 22.546084073929
  30
0.0
  11
 182.54246143754
  21
 22.462750740595
  31
0.0
   0
LINE
   5
31F
 100
AcDbEntity
   8
LEVEL001
 370
15
 100
AcDbLine
   6
CONTINUOUS
  62
2
  10
 183.09719929167
  20
 22.546084073929
  30
0.0
  11
 183.01386595834
  21
 22.462750740595
  31
0.0
   0
LINE
   5
320
 100
AcDbEntity
   8
LEVEL001
 370
15
 100
AcDbLine
   6
CONTINUOUS
  62
2
  10
 183.56860381246
  20
 22.546084073929
  30
0.0
  11
 183.48527047913
  21
 22.462750740595
  31
0.0
   0
LINE
   5
321
 100
AcDbEntity
   8
LEVEL001
 370
15
 100
AcDbLine
   6
CONTINUOUS
  62
2
  10
 184.04000833325
  20
 22.546084073929
  30
0.0
  11
 183.95667499992
  21
 22.462750740595
  31
0.0
   0
LINE
   5
322
 100
AcDbEntity
   8
LEVEL001
 370
15
 100
AcDbLine
   6
CONTINUOUS
  62
2
  10
 184.51141285404
  20
 22.546084073929
  30
0.0
  11
 184.42807952071
  21
 22.462750740595
  31
0.0
   0
LINE
   5
323
 100
AcDbEntity
   8
LEVEL001
 370
15
 100
AcDbLine
   6
CONTINUOUS
  62
2
  10
 184.98281737483
  20
 22.546084073929
  30
0.0
  11
 184.89948404150
  21
 22.462750740595
  31
0.0
   0
LINE
   5
324
 100
AcDbEntity
   8
LEVEL001
 370
15
 100
AcDbLine
   6
CONTINUOUS
  62
2
  10
 185.45422189562
  20
 22.546084073929
  30
0.0
  11
 185.37088856229
  21
 22.462750740595
  31
0.0
   0
LINE
   5
325
 100
AcDbEntity
   8
LEVEL001
 370
15
 100
AcDbLine
   6
CONTINUOUS
  62
2
  10
 185.92562641642
  20
 22.546084073929
  30
0.0
  11
 185.84229308308
  21
 22.462750740595
  31
0.0
   0
LINE
   5
326
 100
AcDbEntity
   8
LEVEL001
 370
15
 100
AcDbLine
   6
CONTINUOUS
  62
2
  10
 186.39703093721
  20
 22.546084073929
  30
0.0
  11
 186.31369760387
  21
 22.462750740595
  31
0.0
   0
LINE
   5
327
 100
AcDbEntity
   8
LEVEL001
 370
15
 100
AcDbLine
   6
CONTINUOUS
  62
2
  10
 182.31369760387
  20
 18.462750740595
  30
0.0
  11
 182.23036427054
  21
 18.379417407262
  31
0.0
   0
LINE
   5
328
 100
AcDbEntity
   8
LEVEL011
 370
15
 100
AcDbLine
   6
DASHDOT
  62
8
  10
 253.09332939899
  20
 83.129417407262
  30
0.0
  11
 169.28128120621
  21
 83.129417407262
  31
0.0
   0
LINE
   5
329
 100
AcDbEntity
   8
LEVEL011
 370
15
 100
AcDbLine
   6
DASHDOT
  62
8
  10
 169.28128120621
  20
 20.462750740595
  30
0.0
  11
 253.09332939899
  21
 20.462750740595
  31
0.0
   0
LINE
   5
32A
 100
AcDbEntity
   8
LEVEL001
 370
15
 100
AcDbLine
   6
CONTINUOUS
  62
2
  10
 175.62249156450
  20
 21.430190812645
  30
0.0
  11
 179.22033762639
  21
 25.028036874538
  31
0.0
   0
LINE
   5
32B
 100
AcDbEntity
   8
LEVEL001
 370
15
 100
AcDbLine
   6
CONTINUOUS
  62
2
  10
 175.81586108662
  20
 22.094964855562
  30
0.0
  11
 178.55556358347
  21
 24.834667352412
  31
0.0
   0
LINE
   5
32C
 100
AcDbEntity
   8
LEVEL001
 370
15
 100
AcDbLine
   6
CONTINUOUS
  62
2
  10
 176.31302522142
  20
 23.063533511153
  30
0.0
  11
 177.58699492788
  21
 24.337503217612
  31
0.0
   0
LINE
   5
32D
 100
AcDbEntity
   8
LEVEL001
 370
15
 100
AcDbLine
   6
CONTINUOUS
  62
2
  10
 175.53941891028
  20
 20.875713637639
  30
0.0
  11
 179.77481480140
  21
 25.111109528753
  31
0.0
   0
LINE
   5
32E
 100
AcDbEntity
   8
LEVEL001
 370
15
 100
AcDbLine
   6
CONTINUOUS
  62
2
  10
 176.71887943197
  20
 17.341128951418
  30
0.0
  11
 178.85444436511
  21
 19.476693884553
  31
0.0
   0
LINE
   5
32F
 100
AcDbEntity
   8
LEVEL001
 370
15
 100
AcDbLine
   6
CONTINUOUS
  62
2
  10
 181.92383455448
  20
 22.546084073929
  30
0.0
  11
 184.50716788782
  21
 25.129417407262
  31
0.0
   0
LINE
   5
330
 100
AcDbEntity
   8
LEVEL001
 370
15
 100
AcDbLine
   6
CONTINUOUS
  62
2
  10
 176.50409310558
  20
 17.597747145817
  30
0.0
  11
 178.85444436511
  21
 19.948098405344
  31
0.0
   0
LINE
   5
331
 100
AcDbEntity
   8
LEVEL001
 370
15
 100
AcDbLine
   6
CONTINUOUS
  62
2
  10
 181.45243003369
  20
 22.546084073929
  30
0.0
  11
 184.03576336702
  21
 25.129417407262
  31
0.0
   0
LINE
   5
332
 100
AcDbEntity
   8
LEVEL001
 370
15
 100
AcDbLine
   6
CONTINUOUS
  62
2
  10
 176.30656301412
  20
 17.871621575151
  30
0.0
  11
 178.85444436511
  21
 20.419502926135
  31
0.0
   0
LINE
   5
333
 100
AcDbEntity
   8
LEVEL001
 370
15
 100
AcDbLine
   6
CONTINUOUS
  62
2
  10
 180.98102551290
  20
 22.546084073929
  30
0.0
  11
 183.56435884623
  21
 25.129417407262
  31
0.0
   0
LINE
   5
334
 100
AcDbEntity
   8
LEVEL001
 370
15
 100
AcDbLine
   6
CONTINUOUS
  62
2
  10
 176.12691049559
  20
 18.163373577408
  30
0.0
  11
 178.85444436511
  21
 20.890907446926
  31
0.0
   0
LINE
   5
335
 100
AcDbEntity
   8
LEVEL001
 370
15
 100
AcDbLine
   6
CONTINUOUS
  62
2
  10
 180.50962099211
  20
 22.546084073929
  30
0.0
  11
 183.09295432544
  21
 25.129417407262
  31
0.0
   0
LINE
   5
336
 100
AcDbEntity
   8
LEVEL001
 370
15
 100
AcDbLine
   6
CONTINUOUS
  62
2
  10
 175.96610347653
  20
 18.473971079139
  30
0.0
  11
 178.85444436511
  21
 21.362311967717
  31
0.0
   0
LINE
   5
337
 100
AcDbEntity
   8
LEVEL001
 370
15
 100
AcDbLine
   6
CONTINUOUS
  62
2
  10
 180.03821647132
  20
 22.546084073929
  30
0.0
  11
 182.62154980465
  21
 25.129417407262
  31
0.0
   0
LINE
   5
338
 100
AcDbEntity
   8
LEVEL001
 370
15
 100
AcDbLine
   6
CONTINUOUS
  62
2
  10
 175.82554834016
  20
 18.804820463559
  30
0.0
  11
 178.85444436511
  21
 21.833716488508
  31
0.0
   0
LINE
   5
339
 100
AcDbEntity
   8
LEVEL001
 370
15
 100
AcDbLine
   6
CONTINUOUS
  62
2
  10
 179.56681195053
  20
 22.546084073929
  30
0.0
  11
 182.15014528386
  21
 25.129417407262
  31
0.0
   0
LINE
   5
33A
 100
AcDbEntity
   8
LEVEL001
 370
15
 100
AcDbLine
   6
CONTINUOUS
  62
2
  10
 175.70724279226
  20
 19.157919436452
  30
0.0
  11
 178.85444436511
  21
 22.305121009299
  31
0.0
   0
LINE
   5
33B
 100
AcDbEntity
   8
LEVEL001
 370
15
 100
AcDbLine
   6
CONTINUOUS
  62
2
  10
 179.09540742974
  20
 22.546084073929
  30
0.0
  11
 181.67874076307
  21
 25.129417407262
  31
0.0
   0
LINE
   5
33C
 100
AcDbEntity
   8
LEVEL001
 370
15
 100
AcDbLine
   6
CONTINUOUS
  62
2
  10
 175.61403464825
  20
 19.536115813233
  30
0.0
  11
 181.20733624228
  21
 25.129417407262
  31
0.0
   0
LINE
   5
33D
 100
AcDbEntity
   8
LEVEL001
 370
15
 100
AcDbLine
   6
CONTINUOUS
  62
2
  10
 175.55008148205
  20
 19.943567167822
  30
0.0
  11
 180.73593172149
  21
 25.129417407262
  31
0.0
   0
LINE
   5
33E
 100
AcDbEntity
   8
LEVEL001
 370
15
 100
AcDbLine
   6
CONTINUOUS
  62
2
  10
 175.52173202487
  20
 20.386622231433
  30
0.0
  11
 180.26452720070
  21
 25.129417407262
  31
0.0
   0
LINE
   5
33F
 100
AcDbEntity
   8
LEVEL001
 370
15
 100
AcDbLine
   6
CONTINUOUS
  62
2
  10
 179.47173622402
  20
 15.851345056350
  30
0.0
  11
 181.99980857493
  21
 18.379417407262
  31
0.0
   0
LINE
   5
340
 100
AcDbEntity
   8
LEVEL001
 370
15
 100
AcDbLine
   6
CONTINUOUS
  62
2
  10
 186.16647524160
  20
 22.546084073929
  30
0.0
  11
 188.74980857493
  21
 25.129417407262
  31
0.0
   0
LINE
   5
341
 100
AcDbEntity
   8
LEVEL001
 370
15
 100
AcDbLine
   6
CONTINUOUS
  62
2
  10
 179.07876234607
  20
 15.929775699191
  30
0.0
  11
 181.52840405414
  21
 18.379417407262
  31
0.0
   0
LINE
   5
342
 100
AcDbEntity
   8
LEVEL001
 370
15
 100
AcDbLine
   6
CONTINUOUS
  62
2
  10
 185.69507072081
  20
 22.546084073929
  30
0.0
  11
 188.27840405414
  21
 25.129417407262
  31
0.0
   0
LINE
   5
343
 100
AcDbEntity
   8
LEVEL001
 370
15
 100
AcDbLine
   6
CONTINUOUS
  62
2
  10
 178.71287020136
  20
 16.035288075271
  30
0.0
  11
 181.05699953335
  21
 18.379417407262
  31
0.0
   0
LINE
   5
344
 100
AcDbEntity
   8
LEVEL001
 370
15
 100
AcDbLine
   6
CONTINUOUS
  62
2
  10
 185.22366620002
  20
 22.546084073929
  30
0.0
  11
 187.80699953335
  21
 25.129417407262
  31
0.0
   0
LINE
   5
345
 100
AcDbEntity
   8
LEVEL001
 370
15
 100
AcDbLine
   6
CONTINUOUS
  62
2
  10
 178.37059865743
  20
 16.164421052134
  30
0.0
  11
 180.58559501256
  21
 18.379417407262
  31
0.0
   0
LINE
   5
346
 100
AcDbEntity
   8
LEVEL001
 370
15
 100
AcDbLine
   6
CONTINUOUS
  62
2
  10
 184.75226167923
  20
 22.546084073929
  30
0.0
  11
 187.33559501256
  21
 25.129417407262
  31
0.0
   0
LINE
   5
347
 100
AcDbEntity
   8
LEVEL001
 370
15
 100
AcDbLine
   6
CONTINUOUS
  62
2
  10
 178.04954417505
  20
 16.314771090544
  30
0.0
  11
 180.11419049177
  21
 18.379417407262
  31
0.0
   0
LINE
   5
348
 100
AcDbEntity
   8
LEVEL001
 370
15
 100
AcDbLine
   6
CONTINUOUS
  62
2
  10
 184.28085715844
  20
 22.546084073929
  30
0.0
  11
 186.86419049177
  21
 25.129417407262
  31
0.0
   0
LINE
   5
349
 100
AcDbEntity
   8
LEVEL001
 370
15
 100
AcDbLine
   6
CONTINUOUS
  62
2
  10
 177.74801329405
  20
 16.484644730336
  30
0.0
  11
 179.64278597098
  21
 18.379417407262
  31
0.0
   0
LINE
   5
34A
 100
AcDbEntity
   8
LEVEL001
 370
15
 100
AcDbLine
   6
CONTINUOUS
  62
2
  10
 183.80945263765
  20
 22.546084073929
  30
0.0
  11
 186.39278597098
  21
 25.129417407262
  31
0.0
   0
LINE
   5
34B
 100
AcDbEntity
   8
LEVEL001
 370
15
 100
AcDbLine
   6
CONTINUOUS
  62
2
  10
 177.46482179030
  20
 16.672857747371
  30
0.0
  11
 179.17138145019
  21
 18.379417407262
  31
0.0
   0
LINE
   5
34C
 100
AcDbEntity
   8
LEVEL001
 370
15
 100
AcDbLine
   6
CONTINUOUS
  62
2
  10
 183.33804811685
  20
 22.546084073929
  30
0.0
  11
 185.92138145019
  21
 25.129417407262
  31
0.0
   0
LINE
   5
34D
 100
AcDbEntity
   8
LEVEL001
 370
15
 100
AcDbLine
   6
CONTINUOUS
  62
2
  10
 177.19917453542
  20
 16.878615013286
  30
0.0
  11
 178.85444436511
  21
 18.533884842971
  31
0.0
   0
LINE
   5
34E
 100
AcDbEntity
   8
LEVEL001
 370
15
 100
AcDbLine
   6
CONTINUOUS
  62
2
  10
 182.86664359606
  20
 22.546084073929
  30
0.0
  11
 185.44997692940
  21
 25.129417407262
  31
0.0
   0
LINE
   5
34F
 100
AcDbEntity
   8
LEVEL001
 370
15
 100
AcDbLine
   6
CONTINUOUS
  62
2
  10
 176.95059378375
  20
 17.101438782407
  30
0.0
  11
 178.85444436511
  21
 19.005289363762
  31
0.0
   0
LINE
   5
350
 100
AcDbEntity
   8
LEVEL001
 370
15
 100
AcDbLine
   6
CONTINUOUS
  62
2
  10
 182.39523907527
  20
 22.546084073929
  30
0.0
  11
 184.97857240861
  21
 25.129417407262
  31
0.0
   0
LINE
   5
351
 100
AcDbEntity
   8
LEVEL001
 370
15
 100
AcDbLine
   6
CONTINUOUS
  62
2
  10
 179.89695075462
  20
 15.805155066159
  30
0.0
  11
 182.47121309573
  21
 18.379417407262
  31
0.0
   0
LINE
   5
352
 100
AcDbEntity
   8
LEVEL001
 370
15
 100
AcDbLine
   6
CONTINUOUS
  62
2
  10
 186.63787976239
  20
 22.546084073929
  30
0.0
  11
 189.18757994475
  21
 25.095784256282
  31
0.0
   0
LINE
   5
353
 100
AcDbEntity
   8
LEVEL001
 370
15
 100
AcDbLine
   6
CONTINUOUS
  62
2
  10
 184.60192497030
  20
 15.796084073929
  30
0.0
  11
 187.18525830364
  21
 18.379417407262
  31
0.0
   0
LINE
   5
354
 100
AcDbEntity
   8
LEVEL001
 370
15
 100
AcDbLine
   6
CONTINUOUS
  62
2
  10
 184.13052044951
  20
 15.796084073929
  30
0.0
  11
 186.71385378284
  21
 18.379417407262
  31
0.0
   0
LINE
   5
355
 100
AcDbEntity
   8
LEVEL001
 370
15
 100
AcDbLine
   6
CONTINUOUS
  62
2
  10
 183.65911592872
  20
 15.796084073929
  30
0.0
  11
 186.24244926205
  21
 18.379417407262
  31
0.0
   0
LINE
   5
356
 100
AcDbEntity
   8
LEVEL001
 370
15
 100
AcDbLine
   6
CONTINUOUS
  62
2
  10
 190.40911592872
  20
 22.546084073929
  30
0.0
  11
 190.52111103177
  21
 22.658079176981
  31
0.0
   0
LINE
   5
357
 100
AcDbEntity
   8
LEVEL001
 370
15
 100
AcDbLine
   6
CONTINUOUS
  62
2
  10
 183.18771140793
  20
 15.796084073929
  30
0.0
  11
 185.77104474126
  21
 18.379417407262
  31
0.0
   0
LINE
   5
358
 100
AcDbEntity
   8
LEVEL001
 370
15
 100
AcDbLine
   6
CONTINUOUS
  62
2
  10
 189.93771140793
  20
 22.546084073929
  30
0.0
  11
 190.52111103177
  21
 23.129483697772
  31
0.0
   0
LINE
   5
359
 100
AcDbEntity
   8
LEVEL001
 370
15
 100
AcDbLine
   6
CONTINUOUS
  62
2
  10
 182.71630688714
  20
 15.796084073929
  30
0.0
  11
 185.29964022047
  21
 18.379417407262
  31
0.0
   0
LINE
   5
35A
 100
AcDbEntity
   8
LEVEL001
 370
15
 100
AcDbLine
   6
CONTINUOUS
  62
2
  10
 189.46630688714
  20
 22.546084073929
  30
0.0
  11
 190.51580902005
  21
 23.595586206837
  31
0.0
   0
LINE
   5
35B
 100
AcDbEntity
   8
LEVEL001
 370
15
 100
AcDbLine
   6
CONTINUOUS
  62
2
  10
 182.24490236635
  20
 15.796084073929
  30
0.0
  11
 184.82823569968
  21
 18.379417407262
  31
0.0
   0
LINE
   5
35C
 100
AcDbEntity
   8
LEVEL001
 370
15
 100
AcDbLine
   6
CONTINUOUS
  62
2
  10
 188.99490236635
  20
 22.546084073929
  30
0.0
  11
 190.43633986004
  21
 23.987521567619
  31
0.0
   0
LINE
   5
35D
 100
AcDbEntity
   8
LEVEL001
 370
15
 100
AcDbLine
   6
CONTINUOUS
  62
2
  10
 181.77349784556
  20
 15.796084073929
  30
0.0
  11
 184.35683117889
  21
 18.379417407262
  31
0.0
   0
LINE
   5
35E
 100
AcDbEntity
   8
LEVEL001
 370
15
 100
AcDbLine
   6
CONTINUOUS
  62
2
  10
 188.52349784556
  20
 22.546084073929
  30
0.0
  11
 190.28884807174
  21
 24.311434300108
  31
0.0
   0
LINE
   5
35F
 100
AcDbEntity
   8
LEVEL001
 370
15
 100
AcDbLine
   6
CONTINUOUS
  62
2
  10
 181.30209332477
  20
 15.796084073929
  30
0.0
  11
 183.88542665810
  21
 18.379417407262
  31
0.0
   0
LINE
   5
360
 100
AcDbEntity
   8
LEVEL001
 370
15
 100
AcDbLine
   6
CONTINUOUS
  62
2
  10
 188.05209332477
  20
 22.546084073929
  30
0.0
  11
 190.08872658685
  21
 24.582717336016
  31
0.0
   0
LINE
   5
361
 100
AcDbEntity
   8
LEVEL001
 370
15
 100
AcDbLine
   6
CONTINUOUS
  62
2
  10
 180.83068880397
  20
 15.796084073929
  30
0.0
  11
 183.41402213731
  21
 18.379417407262
  31
0.0
   0
LINE
   5
362
 100
AcDbEntity
   8
LEVEL001
 370
15
 100
AcDbLine
   6
CONTINUOUS
  62
2
  10
 187.58068880397
  20
 22.546084073929
  30
0.0
  11
 189.84080796972
  21
 24.806203239672
  31
0.0
   0
LINE
   5
363
 100
AcDbEntity
   8
LEVEL001
 370
15
 100
AcDbLine
   6
CONTINUOUS
  62
2
  10
 180.35928428318
  20
 15.796084073929
  30
0.0
  11
 182.94261761652
  21
 18.379417407262
  31
0.0
   0
LINE
   5
364
 100
AcDbEntity
   8
LEVEL001
 370
15
 100
AcDbLine
   6
CONTINUOUS
  62
2
  10
 187.10928428318
  20
 22.546084073929
  30
0.0
  11
 189.54350566257
  21
 24.980305453319
  31
0.0
   0
LINE
   5
365
 100
AcDbEntity
   8
LEVEL001
 370
15
 100
AcDbLine
   6
CONTINUOUS
  62
2
  10
 188.84456565742
  20
 15.796084073929
  30
0.0
  11
 190.52111103177
  21
 17.472629448280
  31
0.0
   0
LINE
   5
366
 100
AcDbEntity
   8
LEVEL001
 370
15
 100
AcDbLine
   6
CONTINUOUS
  62
2
  10
 188.37316113663
  20
 15.796084073929
  30
0.0
  11
 190.52111103177
  21
 17.944033969071
  31
0.0
   0
LINE
   5
367
 100
AcDbEntity
   8
LEVEL001
 370
15
 100
AcDbLine
   6
CONTINUOUS
  62
2
  10
 187.90175661584
  20
 15.796084073929
  30
0.0
  11
 190.48508994917
  21
 18.379417407262
  31
0.0
   0
LINE
   5
368
 100
AcDbEntity
   8
LEVEL001
 370
15
 100
AcDbLine
   6
CONTINUOUS
  62
2
  10
 187.43035209505
  20
 15.796084073929
  30
0.0
  11
 190.01368542838
  21
 18.379417407262
  31
0.0
   0
LINE
   5
369
 100
AcDbEntity
   8
LEVEL001
 370
15
 100
AcDbLine
   6
CONTINUOUS
  62
2
  10
 186.95894757426
  20
 15.796084073929
  30
0.0
  11
 189.54228090759
  21
 18.379417407262
  31
0.0
   0
LINE
   5
36A
 100
AcDbEntity
   8
LEVEL001
 370
15
 100
AcDbLine
   6
CONTINUOUS
  62
2
  10
 186.48754305347
  20
 15.796084073929
  30
0.0
  11
 189.07087638680
  21
 18.379417407262
  31
0.0
   0
LINE
   5
36B
 100
AcDbEntity
   8
LEVEL001
 370
15
 100
AcDbLine
   6
CONTINUOUS
  62
2
  10
 186.01613853268
  20
 15.796084073929
  30
0.0
  11
 188.59947186601
  21
 18.379417407262
  31
0.0
   0
LINE
   5
36C
 100
AcDbEntity
   8
LEVEL001
 370
15
 100
AcDbLine
   6
CONTINUOUS
  62
2
  10
 185.54473401188
  20
 15.796084073929
  30
0.0
  11
 188.12806734522
  21
 18.379417407262
  31
0.0
   0
LINE
   5
36D
 100
AcDbEntity
   8
LEVEL001
 370
15
 100
AcDbLine
   6
CONTINUOUS
  62
2
  10
 185.07332949109
  20
 15.796084073929
  30
0.0
  11
 187.65666282443
  21
 18.379417407262
  31
0.0
   0
LINE
   5
36E
 100
AcDbEntity
   8
LEVEL001
 370
15
 100
AcDbLine
   6
CONTINUOUS
  62
2
  10
 189.41199536402
  20
 15.892109259740
  30
0.0
  11
 190.42508584596
  21
 16.905199741678
  31
0.0
   0
LINE
   5
36F
 100
AcDbEntity
   8
LEVEL001
 370
15
 100
AcDbLine
   6
CONTINUOUS
  62
2
  10
 175.62249156450
  20
 84.096857479312
  30
0.0
  11
 179.22033762639
  21
 87.694703541205
  31
0.0
   0
LINE
   5
370
 100
AcDbEntity
   8
LEVEL001
 370
15
 100
AcDbLine
   6
CONTINUOUS
  62
2
  10
 175.81586108662
  20
 84.761631522229
  30
0.0
  11
 178.55556358347
  21
 87.501334019079
  31
0.0
   0
LINE
   5
371
 100
AcDbEntity
   8
LEVEL001
 370
15
 100
AcDbLine
   6
CONTINUOUS
  62
2
  10
 176.31302522142
  20
 85.730200177820
  30
0.0
  11
 177.58699492788
  21
 87.004169884279
  31
0.0
   0
LINE
   5
372
 100
AcDbEntity
   8
LEVEL001
 370
15
 100
AcDbLine
   6
CONTINUOUS
  62
2
  10
 175.53941891028
  20
 83.542380304306
  30
0.0
  11
 179.77481480140
  21
 87.777776195420
  31
0.0
   0
LINE
   5
373
 100
AcDbEntity
   8
LEVEL001
 370
15
 100
AcDbLine
   6
CONTINUOUS
  62
2
  10
 176.71887943197
  20
 80.007795618085
  30
0.0
  11
 178.85444436511
  21
 82.143360551220
  31
0.0
   0
LINE
   5
374
 100
AcDbEntity
   8
LEVEL001
 370
15
 100
AcDbLine
   6
CONTINUOUS
  62
2
  10
 181.92383455448
  20
 85.212750740595
  30
0.0
  11
 184.50716788782
  21
 87.796084073929
  31
0.0
   0
LINE
   5
375
 100
AcDbEntity
   8
LEVEL001
 370
15
 100
AcDbLine
   6
CONTINUOUS
  62
2
  10
 176.50409310558
  20
 80.264413812483
  30
0.0
  11
 178.85444436511
  21
 82.614765072011
  31
0.0
   0
LINE
   5
376
 100
AcDbEntity
   8
LEVEL001
 370
15
 100
AcDbLine
   6
CONTINUOUS
  62
2
  10
 181.45243003369
  20
 85.212750740595
  30
0.0
  11
 184.03576336702
  21
 87.796084073929
  31
0.0
   0
LINE
   5
377
 100
AcDbEntity
   8
LEVEL001
 370
15
 100
AcDbLine
   6
CONTINUOUS
  62
2
  10
 176.30656301412
  20
 80.538288241818
  30
0.0
  11
 178.85444436511
  21
 83.086169592802
  31
0.0
   0
LINE
   5
378
 100
AcDbEntity
   8
LEVEL001
 370
15
 100
AcDbLine
   6
CONTINUOUS
  62
2
  10
 180.98102551290
  20
 85.212750740595
  30
0.0
  11
 183.56435884623
  21
 87.796084073929
  31
0.0
   0
LINE
   5
379
 100
AcDbEntity
   8
LEVEL001
 370
15
 100
AcDbLine
   6
CONTINUOUS
  62
2
  10
 176.12691049559
  20
 80.830040244075
  30
0.0
  11
 178.85444436511
  21
 83.557574113593
  31
0.0
   0
LINE
   5
37A
 100
AcDbEntity
   8
LEVEL001
 370
15
 100
AcDbLine
   6
CONTINUOUS
  62
2
  10
 180.50962099211
  20
 85.212750740595
  30
0.0
  11
 183.09295432544
  21
 87.796084073929
  31
0.0
   0
LINE
   5
37B
 100
AcDbEntity
   8
LEVEL001
 370
15
 100
AcDbLine
   6
CONTINUOUS
  62
2
  10
 175.96610347653
  20
 81.140637745806
  30
0.0
  11
 178.85444436511
  21
 84.028978634384
  31
0.0
   0
LINE
   5
37C
 100
AcDbEntity
   8
LEVEL001
 370
15
 100
AcDbLine
   6
CONTINUOUS
  62
2
  10
 180.03821647132
  20
 85.212750740595
  30
0.0
  11
 182.62154980465
  21
 87.796084073929
  31
0.0
   0
LINE
   5
37D
 100
AcDbEntity
   8
LEVEL001
 370
15
 100
AcDbLine
   6
CONTINUOUS
  62
2
  10
 175.82554834016
  20
 81.471487130226
  30
0.0
  11
 178.85444436511
  21
 84.500383155175
  31
0.0
   0
LINE
   5
37E
 100
AcDbEntity
   8
LEVEL001
 370
15
 100
AcDbLine
   6
CONTINUOUS
  62
2
  10
 179.56681195053
  20
 85.212750740595
  30
0.0
  11
 182.15014528386
  21
 87.796084073929
  31
0.0
   0
LINE
   5
37F
 100
AcDbEntity
   8
LEVEL001
 370
15
 100
AcDbLine
   6
CONTINUOUS
  62
2
  10
 175.70724279226
  20
 81.824586103119
  30
0.0
  11
 178.85444436511
  21
 84.971787675966
  31
0.0
   0
LINE
   5
380
 100
AcDbEntity
   8
LEVEL001
 370
15
 100
AcDbLine
   6
CONTINUOUS
  62
2
  10
 179.09540742974
  20
 85.212750740595
  30
0.0
  11
 181.67874076307
  21
 87.796084073929
  31
0.0
   0
LINE
   5
381
 100
AcDbEntity
   8
LEVEL001
 370
15
 100
AcDbLine
   6
CONTINUOUS
  62
2
  10
 175.61403464825
  20
 82.202782479900
  30
0.0
  11
 181.20733624228
  21
 87.796084073929
  31
0.0
   0
LINE
   5
382
 100
AcDbEntity
   8
LEVEL001
 370
15
 100
AcDbLine
   6
CONTINUOUS
  62
2
  10
 175.55008148205
  20
 82.610233834489
  30
0.0
  11
 180.73593172149
  21
 87.796084073929
  31
0.0
   0
LINE
   5
383
 100
AcDbEntity
   8
LEVEL001
 370
15
 100
AcDbLine
   6
CONTINUOUS
  62
2
  10
 175.52173202487
  20
 83.053288898099
  30
0.0
  11
 180.26452720070
  21
 87.796084073929
  31
0.0
   0
LINE
   5
384
 100
AcDbEntity
   8
LEVEL001
 370
15
 100
AcDbLine
   6
CONTINUOUS
  62
2
  10
 179.47173622402
  20
 78.518011723017
  30
0.0
  11
 181.99980857493
  21
 81.046084073929
  31
0.0
   0
LINE
   5
385
 100
AcDbEntity
   8
LEVEL001
 370
15
 100
AcDbLine
   6
CONTINUOUS
  62
2
  10
 186.16647524160
  20
 85.212750740595
  30
0.0
  11
 188.74980857493
  21
 87.796084073929
  31
0.0
   0
LINE
   5
386
 100
AcDbEntity
   8
LEVEL001
 370
15
 100
AcDbLine
   6
CONTINUOUS
  62
2
  10
 179.07876234607
  20
 78.596442365858
  30
0.0
  11
 181.52840405414
  21
 81.046084073929
  31
0.0
   0
LINE
   5
387
 100
AcDbEntity
   8
LEVEL001
 370
15
 100
AcDbLine
   6
CONTINUOUS
  62
2
  10
 185.69507072081
  20
 85.212750740595
  30
0.0
  11
 188.27840405414
  21
 87.796084073929
  31
0.0
   0
LINE
   5
388
 100
AcDbEntity
   8
LEVEL001
 370
15
 100
AcDbLine
   6
CONTINUOUS
  62
2
  10
 178.71287020136
  20
 78.701954741938
  30
0.0
  11
 181.05699953335
  21
 81.046084073929
  31
0.0
   0
LINE
   5
389
 100
AcDbEntity
   8
LEVEL001
 370
15
 100
AcDbLine
   6
CONTINUOUS
  62
2
  10
 185.22366620002
  20
 85.212750740595
  30
0.0
  11
 187.80699953335
  21
 87.796084073929
  31
0.0
   0
LINE
   5
38A
 100
AcDbEntity
   8
LEVEL001
 370
15
 100
AcDbLine
   6
CONTINUOUS
  62
2
  10
 178.37059865743
  20
 78.831087718801
  30
0.0
  11
 180.58559501256
  21
 81.046084073929
  31
0.0
   0
LINE
   5
38B
 100
AcDbEntity
   8
LEVEL001
 370
15
 100
AcDbLine
   6
CONTINUOUS
  62
2
  10
 184.75226167923
  20
 85.212750740595
  30
0.0
  11
 187.33559501256
  21
 87.796084073929
  31
0.0
   0
LINE
   5
38C
 100
AcDbEntity
   8
LEVEL001
 370
15
 100
AcDbLine
   6
CONTINUOUS
  62
2
  10
 178.04954417505
  20
 78.981437757211
  30
0.0
  11
 180.11419049177
  21
 81.046084073929
  31
0.0
   0
LINE
   5
38D
 100
AcDbEntity
   8
LEVEL001
 370
15
 100
AcDbLine
   6
CONTINUOUS
  62
2
  10
 184.28085715844
  20
 85.212750740595
  30
0.0
  11
 186.86419049177
  21
 87.796084073929
  31
0.0
   0
LINE
   5
38E
 100
AcDbEntity
   8
LEVEL001
 370
15
 100
AcDbLine
   6
CONTINUOUS
  62
2
  10
 177.74801329405
  20
 79.151311397002
  30
0.0
  11
 179.64278597098
  21
 81.046084073929
  31
0.0
   0
LINE
   5
38F
 100
AcDbEntity
   8
LEVEL001
 370
15
 100
AcDbLine
   6
CONTINUOUS
  62
2
  10
 183.80945263765
  20
 85.212750740595
  30
0.0
  11
 186.39278597098
  21
 87.796084073929
  31
0.0
   0
LINE
   5
390
 100
AcDbEntity
   8
LEVEL001
 370
15
 100
AcDbLine
   6
CONTINUOUS
  62
2
  10
 177.46482179030
  20
 79.339524414038
  30
0.0
  11
 179.17138145019
  21
 81.046084073929
  31
0.0
   0
LINE
   5
391
 100
AcDbEntity
   8
LEVEL001
 370
15
 100
AcDbLine
   6
CONTINUOUS
  62
2
  10
 183.33804811685
  20
 85.212750740595
  30
0.0
  11
 185.92138145019
  21
 87.796084073929
  31
0.0
   0
LINE
   5
392
 100
AcDbEntity
   8
LEVEL001
 370
15
 100
AcDbLine
   6
CONTINUOUS
  62
2
  10
 177.19917453542
  20
 79.545281679953
  30
0.0
  11
 178.85444436511
  21
 81.200551509638
  31
0.0
   0
LINE
   5
393
 100
AcDbEntity
   8
LEVEL001
 370
15
 100
AcDbLine
   6
CONTINUOUS
  62
2
  10
 182.86664359606
  20
 85.212750740595
  30
0.0
  11
 185.44997692940
  21
 87.796084073929
  31
0.0
   0
LINE
   5
394
 100
AcDbEntity
   8
LEVEL001
 370
15
 100
AcDbLine
   6
CONTINUOUS
  62
2
  10
 176.95059378375
  20
 79.768105449074
  30
0.0
  11
 178.85444436511
  21
 81.671956030429
  31
0.0
   0
LINE
   5
395
 100
AcDbEntity
   8
LEVEL001
 370
15
 100
AcDbLine
   6
CONTINUOUS
  62
2
  10
 182.39523907527
  20
 85.212750740595
  30
0.0
  11
 184.97857240861
  21
 87.796084073929
  31
0.0
   0
LINE
   5
396
 100
AcDbEntity
   8
LEVEL001
 370
15
 100
AcDbLine
   6
CONTINUOUS
  62
2
  10
 179.89695075462
  20
 78.471821732826
  30
0.0
  11
 182.47121309573
  21
 81.046084073929
  31
0.0
   0
LINE
   5
397
 100
AcDbEntity
   8
LEVEL001
 370
15
 100
AcDbLine
   6
CONTINUOUS
  62
2
  10
 186.63787976239
  20
 85.212750740595
  30
0.0
  11
 189.18757994475
  21
 87.762450922949
  31
0.0
   0
LINE
   5
398
 100
AcDbEntity
   8
LEVEL001
 370
15
 100
AcDbLine
   6
CONTINUOUS
  62
2
  10
 184.60192497030
  20
 78.462750740595
  30
0.0
  11
 187.18525830364
  21
 81.046084073929
  31
0.0
   0
LINE
   5
399
 100
AcDbEntity
   8
LEVEL001
 370
15
 100
AcDbLine
   6
CONTINUOUS
  62
2
  10
 184.13052044951
  20
 78.462750740595
  30
0.0
  11
 186.71385378284
  21
 81.046084073929
  31
0.0
   0
LINE
   5
39A
 100
AcDbEntity
   8
LEVEL001
 370
15
 100
AcDbLine
   6
CONTINUOUS
  62
2
  10
 183.65911592872
  20
 78.462750740595
  30
0.0
  11
 186.24244926205
  21
 81.046084073929
  31
0.0
   0
LINE
   5
39B
 100
AcDbEntity
   8
LEVEL001
 370
15
 100
AcDbLine
   6
CONTINUOUS
  62
2
  10
 190.40911592872
  20
 85.212750740595
  30
0.0
  11
 190.52111103177
  21
 85.324745843648
  31
0.0
   0
LINE
   5
39C
 100
AcDbEntity
   8
LEVEL001
 370
15
 100
AcDbLine
   6
CONTINUOUS
  62
2
  10
 183.18771140793
  20
 78.462750740595
  30
0.0
  11
 185.77104474126
  21
 81.046084073929
  31
0.0
   0
LINE
   5
39D
 100
AcDbEntity
   8
LEVEL001
 370
15
 100
AcDbLine
   6
CONTINUOUS
  62
2
  10
 189.93771140793
  20
 85.212750740595
  30
0.0
  11
 190.52111103177
  21
 85.796150364439
  31
0.0
   0
LINE
   5
39E
 100
AcDbEntity
   8
LEVEL001
 370
15
 100
AcDbLine
   6
CONTINUOUS
  62
2
  10
 182.71630688714
  20
 78.462750740595
  30
0.0
  11
 185.29964022047
  21
 81.046084073929
  31
0.0
   0
LINE
   5
39F
 100
AcDbEntity
   8
LEVEL001
 370
15
 100
AcDbLine
   6
CONTINUOUS
  62
2
  10
 189.46630688714
  20
 85.212750740595
  30
0.0
  11
 190.51580902005
  21
 86.262252873504
  31
0.0
   0
LINE
   5
3A0
 100
AcDbEntity
   8
LEVEL001
 370
15
 100
AcDbLine
   6
CONTINUOUS
  62
2
  10
 182.24490236635
  20
 78.462750740595
  30
0.0
  11
 184.82823569968
  21
 81.046084073929
  31
0.0
   0
LINE
   5
3A1
 100
AcDbEntity
   8
LEVEL001
 370
15
 100
AcDbLine
   6
CONTINUOUS
  62
2
  10
 188.99490236635
  20
 85.212750740595
  30
0.0
  11
 190.43633986004
  21
 86.654188234285
  31
0.0
   0
LINE
   5
3A2
 100
AcDbEntity
   8
LEVEL001
 370
15
 100
AcDbLine
   6
CONTINUOUS
  62
2
  10
 181.77349784556
  20
 78.462750740595
  30
0.0
  11
 184.35683117889
  21
 81.046084073929
  31
0.0
   0
LINE
   5
3A3
 100
AcDbEntity
   8
LEVEL001
 370
15
 100
AcDbLine
   6
CONTINUOUS
  62
2
  10
 188.52349784556
  20
 85.212750740595
  30
0.0
  11
 190.28884807174
  21
 86.978100966774
  31
0.0
   0
LINE
   5
3A4
 100
AcDbEntity
   8
LEVEL001
 370
15
 100
AcDbLine
   6
CONTINUOUS
  62
2
  10
 181.30209332477
  20
 78.462750740595
  30
0.0
  11
 183.88542665810
  21
 81.046084073929
  31
0.0
   0
LINE
   5
3A5
 100
AcDbEntity
   8
LEVEL001
 370
15
 100
AcDbLine
   6
CONTINUOUS
  62
2
  10
 188.05209332477
  20
 85.212750740595
  30
0.0
  11
 190.08872658685
  21
 87.249384002683
  31
0.0
   0
LINE
   5
3A6
 100
AcDbEntity
   8
LEVEL001
 370
15
 100
AcDbLine
   6
CONTINUOUS
  62
2
  10
 180.83068880397
  20
 78.462750740595
  30
0.0
  11
 183.41402213731
  21
 81.046084073929
  31
0.0
   0
LINE
   5
3A7
 100
AcDbEntity
   8
LEVEL001
 370
15
 100
AcDbLine
   6
CONTINUOUS
  62
2
  10
 187.58068880397
  20
 85.212750740595
  30
0.0
  11
 189.84080796972
  21
 87.472869906339
  31
0.0
   0
LINE
   5
3A8
 100
AcDbEntity
   8
LEVEL001
 370
15
 100
AcDbLine
   6
CONTINUOUS
  62
2
  10
 180.35928428318
  20
 78.462750740595
  30
0.0
  11
 182.94261761652
  21
 81.046084073929
  31
0.0
   0
LINE
   5
3A9
 100
AcDbEntity
   8
LEVEL001
 370
15
 100
AcDbLine
   6
CONTINUOUS
  62
2
  10
 187.10928428318
  20
 85.212750740595
  30
0.0
  11
 189.54350566257
  21
 87.646972119986
  31
0.0
   0
LINE
   5
3AA
 100
AcDbEntity
   8
LEVEL001
 370
15
 100
AcDbLine
   6
CONTINUOUS
  62
2
  10
 188.84456565742
  20
 78.462750740595
  30
0.0
  11
 190.52111103177
  21
 80.139296114947
  31
0.0
   0
LINE
   5
3AB
 100
AcDbEntity
   8
LEVEL001
 370
15
 100
AcDbLine
   6
CONTINUOUS
  62
2
  10
 188.37316113663
  20
 78.462750740595
  30
0.0
  11
 190.52111103177
  21
 80.610700635738
  31
0.0
   0
LINE
   5
3AC
 100
AcDbEntity
   8
LEVEL001
 370
15
 100
AcDbLine
   6
CONTINUOUS
  62
2
  10
 187.90175661584
  20
 78.462750740595
  30
0.0
  11
 190.48508994917
  21
 81.046084073929
  31
0.0
   0
LINE
   5
3AD
 100
AcDbEntity
   8
LEVEL001
 370
15
 100
AcDbLine
   6
CONTINUOUS
  62
2
  10
 187.43035209505
  20
 78.462750740595
  30
0.0
  11
 190.01368542838
  21
 81.046084073929
  31
0.0
   0
LINE
   5
3AE
 100
AcDbEntity
   8
LEVEL001
 370
15
 100
AcDbLine
   6
CONTINUOUS
  62
2
  10
 186.95894757426
  20
 78.462750740595
  30
0.0
  11
 189.54228090759
  21
 81.046084073929
  31
0.0
   0
LINE
   5
3AF
 100
AcDbEntity
   8
LEVEL001
 370
15
 100
AcDbLine
   6
CONTINUOUS
  62
2
  10
 186.48754305347
  20
 78.462750740595
  30
0.0
  11
 189.07087638680
  21
 81.046084073929
  31
0.0
   0
LINE
   5
3B0
 100
AcDbEntity
   8
LEVEL001
 370
15
 100
AcDbLine
   6
CONTINUOUS
  62
2
  10
 186.01613853268
  20
 78.462750740595
  30
0.0
  11
 188.59947186601
  21
 81.046084073929
  31
0.0
   0
LINE
   5
3B1
 100
AcDbEntity
   8
LEVEL001
 370
15
 100
AcDbLine
   6
CONTINUOUS
  62
2
  10
 185.54473401188
  20
 78.462750740595
  30
0.0
  11
 188.12806734522
  21
 81.046084073929
  31
0.0
   0
LINE
   5
3B2
 100
AcDbEntity
   8
LEVEL001
 370
15
 100
AcDbLine
   6
CONTINUOUS
  62
2
  10
 185.07332949109
  20
 78.462750740595
  30
0.0
  11
 187.65666282443
  21
 81.046084073929
  31
0.0
   0
LINE
   5
3B3
 100
AcDbEntity
   8
LEVEL001
 370
15
 100
AcDbLine
   6
CONTINUOUS
  62
2
  10
 189.41199536402
  20
 78.558775926407
  30
0.0
  11
 190.42508584596
  21
 79.571866408344
  31
0.0
   0
LINE
   5
3B4
 100
AcDbEntity
   8
LEVEL001
 370
15
 100
AcDbLine
   6
CONTINUOUS
  62
2
  10
 233.85444436511
  20
 85.760267784999
  30
0.0
  11
 235.89026065404
  21
 87.796084073929
  31
0.0
   0
LINE
   5
3B5
 100
AcDbEntity
   8
LEVEL001
 370
15
 100
AcDbLine
   6
CONTINUOUS
  62
2
  10
 233.85779338625
  20
 86.235021326927
  30
0.0
  11
 235.41550711211
  21
 87.792735052791
  31
0.0
   0
LINE
   5
3B6
 100
AcDbEntity
   8
LEVEL001
 370
15
 100
AcDbLine
   6
CONTINUOUS
  62
2
  10
 234.03471903580
  20
 86.883351497273
  30
0.0
  11
 234.76717694176
  21
 87.615809403236
  31
0.0
   0
LINE
   5
3B7
 100
AcDbEntity
   8
LEVEL001
 370
15
 100
AcDbLine
   6
CONTINUOUS
  62
2
  10
 233.85444436511
  20
 85.288863264208
  30
0.0
  11
 236.36166517483
  21
 87.796084073929
  31
0.0
   0
LINE
   5
3B8
 100
AcDbEntity
   8
LEVEL001
 370
15
 100
AcDbLine
   6
CONTINUOUS
  62
2
  10
 233.85444436511
  20
 80.574818056298
  30
0.0
  11
 234.32571038274
  21
 81.046084073929
  31
0.0
   0
LINE
   5
3B9
 100
AcDbEntity
   8
LEVEL001
 370
15
 100
AcDbLine
   6
CONTINUOUS
  62
2
  10
 238.49237704941
  20
 85.212750740595
  30
0.0
  11
 241.07571038274
  21
 87.796084073929
  31
0.0
   0
LINE
   5
3BA
 100
AcDbEntity
   8
LEVEL001
 370
15
 100
AcDbLine
   6
CONTINUOUS
  62
2
  10
 238.02097252861
  20
 85.212750740595
  30
0.0
  11
 240.60430586195
  21
 87.796084073929
  31
0.0
   0
LINE
   5
3BB
 100
AcDbEntity
   8
LEVEL001
 370
15
 100
AcDbLine
   6
CONTINUOUS
  62
2
  10
 237.54956800782
  20
 85.212750740595
  30
0.0
  11
 240.13290134116
  21
 87.796084073929
  31
0.0
   0
LINE
   5
3BC
 100
AcDbEntity
   8
LEVEL001
 370
15
 100
AcDbLine
   6
CONTINUOUS
  62
2
  10
 237.07816348703
  20
 85.212750740595
  30
0.0
  11
 239.66149682037
  21
 87.796084073929
  31
0.0
   0
LINE
   5
3BD
 100
AcDbEntity
   8
LEVEL001
 370
15
 100
AcDbLine
   6
CONTINUOUS
  62
2
  10
 236.60675896624
  20
 85.212750740595
  30
0.0
  11
 239.19009229957
  21
 87.796084073929
  31
0.0
   0
LINE
   5
3BE
 100
AcDbEntity
   8
LEVEL001
 370
15
 100
AcDbLine
   6
CONTINUOUS
  62
2
  10
 236.13535444545
  20
 85.212750740595
  30
0.0
  11
 238.71868777878
  21
 87.796084073929
  31
0.0
   0
LINE
   5
3BF
 100
AcDbEntity
   8
LEVEL001
 370
15
 100
AcDbLine
   6
CONTINUOUS
  62
2
  10
 235.66394992466
  20
 85.212750740595
  30
0.0
  11
 238.24728325799
  21
 87.796084073929
  31
0.0
   0
LINE
   5
3C0
 100
AcDbEntity
   8
LEVEL001
 370
15
 100
AcDbLine
   6
CONTINUOUS
  62
2
  10
 235.19254540387
  20
 85.212750740595
  30
0.0
  11
 237.77587873720
  21
 87.796084073929
  31
0.0
   0
LINE
   5
3C1
 100
AcDbEntity
   8
LEVEL001
 370
15
 100
AcDbLine
   6
CONTINUOUS
  62
2
  10
 234.72114088308
  20
 85.212750740595
  30
0.0
  11
 237.30447421641
  21
 87.796084073929
  31
0.0
   0
LINE
   5
3C2
 100
AcDbEntity
   8
LEVEL001
 370
15
 100
AcDbLine
   6
CONTINUOUS
  62
2
  10
 234.24973636229
  20
 85.212750740595
  30
0.0
  11
 236.83306969562
  21
 87.796084073929
  31
0.0
   0
LINE
   5
3C3
 100
AcDbEntity
   8
LEVEL001
 370
15
 100
AcDbLine
   6
CONTINUOUS
  62
2
  10
 235.98501773653
  20
 78.462750740595
  30
0.0
  11
 238.56835106986
  21
 81.046084073929
  31
0.0
   0
LINE
   5
3C4
 100
AcDbEntity
   8
LEVEL001
 370
15
 100
AcDbLine
   6
CONTINUOUS
  62
2
  10
 242.73501773652
  20
 85.212750740595
  30
0.0
  11
 245.20592916666
  21
 87.683662170727
  31
0.0
   0
LINE
   5
3C5
 100
AcDbEntity
   8
LEVEL001
 370
15
 100
AcDbLine
   6
CONTINUOUS
  62
2
  10
 235.51363000554
  20
 78.462767530406
  30
0.0
  11
 238.09694654907
  21
 81.046084073929
  31
0.0
   0
LINE
   5
3C6
 100
AcDbEntity
   8
LEVEL001
 370
15
 100
AcDbLine
   6
CONTINUOUS
  62
2
  10
 242.26361321573
  20
 85.212750740595
  30
0.0
  11
 244.80583717444
  21
 87.754974699298
  31
0.0
   0
LINE
   5
3C7
 100
AcDbEntity
   8
LEVEL001
 370
15
 100
AcDbLine
   6
CONTINUOUS
  62
2
  10
 235.09705760783
  20
 78.517599653478
  30
0.0
  11
 237.62554202828
  21
 81.046084073929
  31
0.0
   0
LINE
   5
3C8
 100
AcDbEntity
   8
LEVEL001
 370
15
 100
AcDbLine
   6
CONTINUOUS
  62
2
  10
 241.79220869494
  20
 85.212750740595
  30
0.0
  11
 244.37190804365
  21
 87.792450089300
  31
0.0
   0
LINE
   5
3C9
 100
AcDbEntity
   8
LEVEL001
 370
15
 100
AcDbLine
   6
CONTINUOUS
  62
2
  10
 234.75652825216
  20
 78.648474818605
  30
0.0
  11
 237.15413750749
  21
 81.046084073929
  31
0.0
   0
LINE
   5
3CA
 100
AcDbEntity
   8
LEVEL001
 370
15
 100
AcDbLine
   6
CONTINUOUS
  62
2
  10
 241.32080417415
  20
 85.212750740595
  30
0.0
  11
 243.90413750748
  21
 87.796084073929
  31
0.0
   0
LINE
   5
3CB
 100
AcDbEntity
   8
LEVEL001
 370
15
 100
AcDbLine
   6
CONTINUOUS
  62
2
  10
 234.47145894094
  20
 78.834810028175
  30
0.0
  11
 236.68273298669
  21
 81.046084073929
  31
0.0
   0
LINE
   5
3CC
 100
AcDbEntity
   8
LEVEL001
 370
15
 100
AcDbLine
   6
CONTINUOUS
  62
2
  10
 240.84939965336
  20
 85.212750740595
  30
0.0
  11
 243.43273298669
  21
 87.796084073929
  31
0.0
   0
LINE
   5
3CD
 100
AcDbEntity
   8
LEVEL001
 370
15
 100
AcDbLine
   6
CONTINUOUS
  62
2
  10
 234.23482670894
  20
 79.069582316969
  30
0.0
  11
 236.21132846590
  21
 81.046084073929
  31
0.0
   0
LINE
   5
3CE
 100
AcDbEntity
   8
LEVEL001
 370
15
 100
AcDbLine
   6
CONTINUOUS
  62
2
  10
 240.37799513257
  20
 85.212750740595
  30
0.0
  11
 242.96132846590
  21
 87.796084073929
  31
0.0
   0
LINE
   5
3CF
 100
AcDbEntity
   8
LEVEL001
 370
15
 100
AcDbLine
   6
CONTINUOUS
  62
2
  10
 234.04651150126
  20
 79.352671630075
  30
0.0
  11
 235.73992394511
  21
 81.046084073929
  31
0.0
   0
LINE
   5
3D0
 100
AcDbEntity
   8
LEVEL001
 370
15
 100
AcDbLine
   6
CONTINUOUS
  62
2
  10
 239.90659061178
  20
 85.212750740595
  30
0.0
  11
 242.48992394511
  21
 87.796084073929
  31
0.0
   0
LINE
   5
3D1
 100
AcDbEntity
   8
LEVEL001
 370
15
 100
AcDbLine
   6
CONTINUOUS
  62
2
  10
 233.91320399454
  20
 79.690768644146
  30
0.0
  11
 235.26851942432
  21
 81.046084073929
  31
0.0
   0
LINE
   5
3D2
 100
AcDbEntity
   8
LEVEL001
 370
15
 100
AcDbLine
   6
CONTINUOUS
  62
2
  10
 239.43518609099
  20
 85.212750740595
  30
0.0
  11
 242.01851942432
  21
 87.796084073929
  31
0.0
   0
LINE
   5
3D3
 100
AcDbEntity
   8
LEVEL001
 370
15
 100
AcDbLine
   6
CONTINUOUS
  62
2
  10
 233.85464413262
  20
 80.103613303017
  30
0.0
  11
 234.79711490353
  21
 81.046084073929
  31
0.0
   0
LINE
   5
3D4
 100
AcDbEntity
   8
LEVEL001
 370
15
 100
AcDbLine
   6
CONTINUOUS
  62
2
  10
 238.96378157020
  20
 85.212750740595
  30
0.0
  11
 241.54711490353
  21
 87.796084073929
  31
0.0
   0
LINE
   5
3D5
 100
AcDbEntity
   8
LEVEL001
 370
15
 100
AcDbLine
   6
CONTINUOUS
  62
2
  10
 236.45642225732
  20
 78.462750740595
  30
0.0
  11
 239.03975559065
  21
 81.046084073929
  31
0.0
   0
LINE
   5
3D6
 100
AcDbEntity
   8
LEVEL001
 370
15
 100
AcDbLine
   6
CONTINUOUS
  62
2
  10
 243.20642225732
  20
 85.212750740595
  30
0.0
  11
 245.57789966137
  21
 87.584228144651
  31
0.0
   0
LINE
   5
3D7
 100
AcDbEntity
   8
LEVEL001
 370
15
 100
AcDbLine
   6
CONTINUOUS
  62
2
  10
 241.17046746523
  20
 78.462750740595
  30
0.0
  11
 243.75380079856
  21
 81.046084073929
  31
0.0
   0
LINE
   5
3D8
 100
AcDbEntity
   8
LEVEL001
 370
15
 100
AcDbLine
   6
CONTINUOUS
  62
2
  10
 245.52111103177
  20
 82.813394307143
  30
0.0
  11
 248.20757637107
  21
 85.499859646442
  31
0.0
   0
LINE
   5
3D9
 100
AcDbEntity
   8
LEVEL001
 370
15
 100
AcDbLine
   6
CONTINUOUS
  62
2
  10
 240.69906294444
  20
 78.462750740595
  30
0.0
  11
 243.28239627777
  21
 81.046084073929
  31
0.0
   0
LINE
   5
3DA
 100
AcDbEntity
   8
LEVEL001
 370
15
 100
AcDbLine
   6
CONTINUOUS
  62
2
  10
 245.52111103177
  20
 83.284798827934
  30
0.0
  11
 248.02359769349
  21
 85.787285489649
  31
0.0
   0
LINE
   5
3DB
 100
AcDbEntity
   8
LEVEL001
 370
15
 100
AcDbLine
   6
CONTINUOUS
  62
2
  10
 240.22765842364
  20
 78.462750740595
  30
0.0
  11
 242.81099175698
  21
 81.046084073929
  31
0.0
   0
LINE
   5
3DC
 100
AcDbEntity
   8
LEVEL001
 370
15
 100
AcDbLine
   6
CONTINUOUS
  62
2
  10
 245.52111103177
  20
 83.756203348725
  30
0.0
  11
 247.82191813727
  21
 86.057010454224
  31
0.0
   0
LINE
   5
3DD
 100
AcDbEntity
   8
LEVEL001
 370
15
 100
AcDbLine
   6
CONTINUOUS
  62
2
  10
 239.75625390285
  20
 78.462750740595
  30
0.0
  11
 242.33958723619
  21
 81.046084073929
  31
0.0
   0
LINE
   5
3DE
 100
AcDbEntity
   8
LEVEL001
 370
15
 100
AcDbLine
   6
CONTINUOUS
  62
2
  10
 245.52111103177
  20
 84.227607869517
  30
0.0
  11
 247.60308560714
  21
 86.309582444886
  31
0.0
   0
LINE
   5
3DF
 100
AcDbEntity
   8
LEVEL001
 370
15
 100
AcDbLine
   6
CONTINUOUS
  62
2
  10
 239.28484938206
  20
 78.462750740595
  30
0.0
  11
 241.86818271540
  21
 81.046084073929
  31
0.0
   0
LINE
   5
3E0
 100
AcDbEntity
   8
LEVEL001
 370
15
 100
AcDbLine
   6
CONTINUOUS
  62
2
  10
 245.52111103177
  20
 84.699012390308
  30
0.0
  11
 247.36736335581
  21
 86.545264714338
  31
0.0
   0
LINE
   5
3E1
 100
AcDbEntity
   8
LEVEL001
 370
15
 100
AcDbLine
   6
CONTINUOUS
  62
2
  10
 238.81344486127
  20
 78.462750740595
  30
0.0
  11
 241.39677819460
  21
 81.046084073929
  31
0.0
   0
LINE
   5
3E2
 100
AcDbEntity
   8
LEVEL001
 370
15
 100
AcDbLine
   6
CONTINUOUS
  62
2
  10
 245.52111103177
  20
 85.170416911099
  30
0.0
  11
 247.11475107451
  21
 86.764056953838
  31
0.0
   0
LINE
   5
3E3
 100
AcDbEntity
   8
LEVEL001
 370
15
 100
AcDbLine
   6
CONTINUOUS
  62
2
  10
 238.34204034048
  20
 78.462750740595
  30
0.0
  11
 240.92537367381
  21
 81.046084073929
  31
0.0
   0
LINE
   5
3E4
 100
AcDbEntity
   8
LEVEL001
 370
15
 100
AcDbLine
   6
CONTINUOUS
  62
2
  10
 245.09204034048
  20
 85.212750740595
  30
0.0
  11
 246.84498486878
  21
 86.965695268897
  31
0.0
   0
LINE
   5
3E5
 100
AcDbEntity
   8
LEVEL001
 370
15
 100
AcDbLine
   6
CONTINUOUS
  62
2
  10
 237.87063581969
  20
 78.462750740595
  30
0.0
  11
 240.45396915302
  21
 81.046084073929
  31
0.0
   0
LINE
   5
3E6
 100
AcDbEntity
   8
LEVEL001
 370
15
 100
AcDbLine
   6
CONTINUOUS
  62
2
  10
 244.62063581969
  20
 85.212750740595
  30
0.0
  11
 246.55751611460
  21
 87.149631035509
  31
0.0
   0
LINE
   5
3E7
 100
AcDbEntity
   8
LEVEL001
 370
15
 100
AcDbLine
   6
CONTINUOUS
  62
2
  10
 237.39923129890
  20
 78.462750740595
  30
0.0
  11
 239.98256463223
  21
 81.046084073929
  31
0.0
   0
LINE
   5
3E8
 100
AcDbEntity
   8
LEVEL001
 370
15
 100
AcDbLine
   6
CONTINUOUS
  62
2
  10
 244.14923129890
  20
 85.212750740595
  30
0.0
  11
 246.25146508796
  21
 87.314984529661
  31
0.0
   0
LINE
   5
3E9
 100
AcDbEntity
   8
LEVEL001
 370
15
 100
AcDbLine
   6
CONTINUOUS
  62
2
  10
 236.92782677811
  20
 78.462750740595
  30
0.0
  11
 239.51116011144
  21
 81.046084073929
  31
0.0
   0
LINE
   5
3EA
 100
AcDbEntity
   8
LEVEL001
 370
15
 100
AcDbLine
   6
CONTINUOUS
  62
2
  10
 243.67782677811
  20
 85.212750740595
  30
0.0
  11
 245.92553964553
  21
 87.460463608013
  31
0.0
   0
LINE
   5
3EB
 100
AcDbEntity
   8
LEVEL001
 370
15
 100
AcDbLine
   6
CONTINUOUS
  62
2
  10
 245.64717564939
  20
 78.696818237638
  30
0.0
  11
 248.62037686807
  21
 81.670019456316
  31
0.0
   0
LINE
   5
3EC
 100
AcDbEntity
   8
LEVEL001
 370
15
 100
AcDbLine
   6
CONTINUOUS
  62
2
  10
 245.01573958179
  20
 78.536786690832
  30
0.0
  11
 248.78040841487
  21
 82.301455523912
  31
0.0
   0
LINE
   5
3ED
 100
AcDbEntity
   8
LEVEL001
 370
15
 100
AcDbLine
   6
CONTINUOUS
  62
2
  10
 244.47942115934
  20
 78.471872789173
  30
0.0
  11
 248.84532231653
  21
 82.837773946363
  31
0.0
   0
LINE
   5
3EE
 100
AcDbEntity
   8
LEVEL001
 370
15
 100
AcDbLine
   6
CONTINUOUS
  62
2
  10
 243.99889458997
  20
 78.462750740595
  30
0.0
  11
 248.85076776152
  21
 83.314623912138
  31
0.0
   0
LINE
   5
3EF
 100
AcDbEntity
   8
LEVEL001
 370
15
 100
AcDbLine
   6
CONTINUOUS
  62
2
  10
 243.52749006918
  20
 78.462750740595
  30
0.0
  11
 248.81320302672
  21
 83.748463698139
  31
0.0
   0
LINE
   5
3F0
 100
AcDbEntity
   8
LEVEL001
 370
15
 100
AcDbLine
   6
CONTINUOUS
  62
2
  10
 243.05608554839
  20
 78.462750740595
  30
0.0
  11
 248.74181796730
  21
 84.148483159504
  31
0.0
   0
LINE
   5
3F1
 100
AcDbEntity
   8
LEVEL001
 370
15
 100
AcDbLine
   6
CONTINUOUS
  62
2
  10
 242.58468102760
  20
 78.462750740595
  30
0.0
  11
 245.16801436093
  21
 81.046084073929
  31
0.0
   0
LINE
   5
3F2
 100
AcDbEntity
   8
LEVEL001
 370
15
 100
AcDbLine
   6
CONTINUOUS
  62
2
  10
 245.52111103177
  20
 81.399180744770
  30
0.0
  11
 248.64232228432
  21
 84.520391997318
  31
0.0
   0
LINE
   5
3F3
 100
AcDbEntity
   8
LEVEL001
 370
15
 100
AcDbLine
   6
CONTINUOUS
  62
2
  10
 242.11327650681
  20
 78.462750740595
  30
0.0
  11
 244.69660984014
  21
 81.046084073929
  31
0.0
   0
LINE
   5
3F4
 100
AcDbEntity
   8
LEVEL001
 370
15
 100
AcDbLine
   6
CONTINUOUS
  62
2
  10
 245.52111103177
  20
 81.870585265561
  30
0.0
  11
 248.51850348357
  21
 84.867977717354
  31
0.0
   0
LINE
   5
3F5
 100
AcDbEntity
   8
LEVEL001
 370
15
 100
AcDbLine
   6
CONTINUOUS
  62
2
  10
 241.64187198602
  20
 78.462750740595
  30
0.0
  11
 244.22520531935
  21
 81.046084073929
  31
0.0
   0
LINE
   5
3F6
 100
AcDbEntity
   8
LEVEL001
 370
15
 100
AcDbLine
   6
CONTINUOUS
  62
2
  10
 245.52111103177
  20
 82.341989786352
  30
0.0
  11
 248.37297531143
  21
 85.193854066011
  31
0.0
   0
LINE
   5
3F7
 100
AcDbEntity
   8
LEVEL001
 370
15
 100
AcDbLine
   6
CONTINUOUS
  62
2
  10
 246.49445350430
  20
 79.072691571758
  30
0.0
  11
 248.24450353394
  21
 80.822741601404
  31
0.0
   0
LINE
   5
3F8
 100
AcDbEntity
   8
LEVEL001
 370
15
 100
AcDbLine
   6
CONTINUOUS
  62
2
  10
 233.85444436511
  20
 23.093601118332
  30
0.0
  11
 235.89026065404
  21
 25.129417407262
  31
0.0
   0
LINE
   5
3F9
 100
AcDbEntity
   8
LEVEL001
 370
15
 100
AcDbLine
   6
CONTINUOUS
  62
2
  10
 233.85779338625
  20
 23.568354660261
  30
0.0
  11
 235.41550711211
  21
 25.126068386125
  31
0.0
   0
LINE
   5
3FA
 100
AcDbEntity
   8
LEVEL001
 370
15
 100
AcDbLine
   6
CONTINUOUS
  62
2
  10
 234.03471903580
  20
 24.216684830606
  30
0.0
  11
 234.76717694176
  21
 24.949142736570
  31
0.0
   0
LINE
   5
3FB
 100
AcDbEntity
   8
LEVEL001
 370
15
 100
AcDbLine
   6
CONTINUOUS
  62
2
  10
 233.85444436511
  20
 22.622196597541
  30
0.0
  11
 236.36166517483
  21
 25.129417407262
  31
0.0
   0
LINE
   5
3FC
 100
AcDbEntity
   8
LEVEL001
 370
15
 100
AcDbLine
   6
CONTINUOUS
  62
2
  10
 233.85444436511
  20
 17.908151389631
  30
0.0
  11
 234.32571038274
  21
 18.379417407262
  31
0.0
   0
LINE
   5
3FD
 100
AcDbEntity
   8
LEVEL001
 370
15
 100
AcDbLine
   6
CONTINUOUS
  62
2
  10
 238.49237704941
  20
 22.546084073929
  30
0.0
  11
 241.07571038274
  21
 25.129417407262
  31
0.0
   0
LINE
   5
3FE
 100
AcDbEntity
   8
LEVEL001
 370
15
 100
AcDbLine
   6
CONTINUOUS
  62
2
  10
 238.02097252861
  20
 22.546084073929
  30
0.0
  11
 240.60430586195
  21
 25.129417407262
  31
0.0
   0
LINE
   5
3FF
 100
AcDbEntity
   8
LEVEL001
 370
15
 100
AcDbLine
   6
CONTINUOUS
  62
2
  10
 237.54956800782
  20
 22.546084073929
  30
0.0
  11
 240.13290134116
  21
 25.129417407262
  31
0.0
   0
LINE
   5
400
 100
AcDbEntity
   8
LEVEL001
 370
15
 100
AcDbLine
   6
CONTINUOUS
  62
2
  10
 237.07816348703
  20
 22.546084073929
  30
0.0
  11
 239.66149682037
  21
 25.129417407262
  31
0.0
   0
LINE
   5
401
 100
AcDbEntity
   8
LEVEL001
 370
15
 100
AcDbLine
   6
CONTINUOUS
  62
2
  10
 236.60675896624
  20
 22.546084073929
  30
0.0
  11
 239.19009229957
  21
 25.129417407262
  31
0.0
   0
LINE
   5
402
 100
AcDbEntity
   8
LEVEL001
 370
15
 100
AcDbLine
   6
CONTINUOUS
  62
2
  10
 236.13535444545
  20
 22.546084073929
  30
0.0
  11
 238.71868777878
  21
 25.129417407262
  31
0.0
   0
LINE
   5
403
 100
AcDbEntity
   8
LEVEL001
 370
15
 100
AcDbLine
   6
CONTINUOUS
  62
2
  10
 235.66394992466
  20
 22.546084073929
  30
0.0
  11
 238.24728325799
  21
 25.129417407262
  31
0.0
   0
LINE
   5
404
 100
AcDbEntity
   8
LEVEL001
 370
15
 100
AcDbLine
   6
CONTINUOUS
  62
2
  10
 235.19254540387
  20
 22.546084073929
  30
0.0
  11
 237.77587873720
  21
 25.129417407262
  31
0.0
   0
LINE
   5
405
 100
AcDbEntity
   8
LEVEL001
 370
15
 100
AcDbLine
   6
CONTINUOUS
  62
2
  10
 234.72114088308
  20
 22.546084073929
  30
0.0
  11
 237.30447421641
  21
 25.129417407262
  31
0.0
   0
LINE
   5
406
 100
AcDbEntity
   8
LEVEL001
 370
15
 100
AcDbLine
   6
CONTINUOUS
  62
2
  10
 234.24973636229
  20
 22.546084073929
  30
0.0
  11
 236.83306969562
  21
 25.129417407262
  31
0.0
   0
LINE
   5
407
 100
AcDbEntity
   8
LEVEL001
 370
15
 100
AcDbLine
   6
CONTINUOUS
  62
2
  10
 235.98501773653
  20
 15.796084073929
  30
0.0
  11
 238.56835106986
  21
 18.379417407262
  31
0.0
   0
LINE
   5
408
 100
AcDbEntity
   8
LEVEL001
 370
15
 100
AcDbLine
   6
CONTINUOUS
  62
2
  10
 242.73501773652
  20
 22.546084073929
  30
0.0
  11
 245.20592916666
  21
 25.016995504061
  31
0.0
   0
LINE
   5
409
 100
AcDbEntity
   8
LEVEL001
 370
15
 100
AcDbLine
   6
CONTINUOUS
  62
2
  10
 235.51363000554
  20
 15.796100863739
  30
0.0
  11
 238.09694654907
  21
 18.379417407262
  31
0.0
   0
LINE
   5
40A
 100
AcDbEntity
   8
LEVEL001
 370
15
 100
AcDbLine
   6
CONTINUOUS
  62
2
  10
 242.26361321573
  20
 22.546084073929
  30
0.0
  11
 244.80583717444
  21
 25.088308032632
  31
0.0
   0
LINE
   5
40B
 100
AcDbEntity
   8
LEVEL001
 370
15
 100
AcDbLine
   6
CONTINUOUS
  62
2
  10
 235.09705760783
  20
 15.850932986811
  30
0.0
  11
 237.62554202828
  21
 18.379417407262
  31
0.0
   0
LINE
   5
40C
 100
AcDbEntity
   8
LEVEL001
 370
15
 100
AcDbLine
   6
CONTINUOUS
  62
2
  10
 241.79220869494
  20
 22.546084073929
  30
0.0
  11
 244.37190804365
  21
 25.125783422633
  31
0.0
   0
LINE
   5
40D
 100
AcDbEntity
   8
LEVEL001
 370
15
 100
AcDbLine
   6
CONTINUOUS
  62
2
  10
 234.75652825216
  20
 15.981808151939
  30
0.0
  11
 237.15413750749
  21
 18.379417407262
  31
0.0
   0
LINE
   5
40E
 100
AcDbEntity
   8
LEVEL001
 370
15
 100
AcDbLine
   6
CONTINUOUS
  62
2
  10
 241.32080417415
  20
 22.546084073929
  30
0.0
  11
 243.90413750748
  21
 25.129417407262
  31
0.0
   0
LINE
   5
40F
 100
AcDbEntity
   8
LEVEL001
 370
15
 100
AcDbLine
   6
CONTINUOUS
  62
2
  10
 234.47145894094
  20
 16.168143361508
  30
0.0
  11
 236.68273298669
  21
 18.379417407262
  31
0.0
   0
LINE
   5
410
 100
AcDbEntity
   8
LEVEL001
 370
15
 100
AcDbLine
   6
CONTINUOUS
  62
2
  10
 240.84939965336
  20
 22.546084073929
  30
0.0
  11
 243.43273298669
  21
 25.129417407262
  31
0.0
   0
LINE
   5
411
 100
AcDbEntity
   8
LEVEL001
 370
15
 100
AcDbLine
   6
CONTINUOUS
  62
2
  10
 234.23482670894
  20
 16.402915650302
  30
0.0
  11
 236.21132846590
  21
 18.379417407262
  31
0.0
   0
LINE
   5
412
 100
AcDbEntity
   8
LEVEL001
 370
15
 100
AcDbLine
   6
CONTINUOUS
  62
2
  10
 240.37799513257
  20
 22.546084073929
  30
0.0
  11
 242.96132846590
  21
 25.129417407262
  31
0.0
   0
LINE
   5
413
 100
AcDbEntity
   8
LEVEL001
 370
15
 100
AcDbLine
   6
CONTINUOUS
  62
2
  10
 234.04651150126
  20
 16.686004963408
  30
0.0
  11
 235.73992394511
  21
 18.379417407262
  31
0.0
   0
LINE
   5
414
 100
AcDbEntity
   8
LEVEL001
 370
15
 100
AcDbLine
   6
CONTINUOUS
  62
2
  10
 239.90659061178
  20
 22.546084073929
  30
0.0
  11
 242.48992394511
  21
 25.129417407262
  31
0.0
   0
LINE
   5
415
 100
AcDbEntity
   8
LEVEL001
 370
15
 100
AcDbLine
   6
CONTINUOUS
  62
2
  10
 233.91320399454
  20
 17.024101977479
  30
0.0
  11
 235.26851942432
  21
 18.379417407262
  31
0.0
   0
LINE
   5
416
 100
AcDbEntity
   8
LEVEL001
 370
15
 100
AcDbLine
   6
CONTINUOUS
  62
2
  10
 239.43518609099
  20
 22.546084073929
  30
0.0
  11
 242.01851942432
  21
 25.129417407262
  31
0.0
   0
LINE
   5
417
 100
AcDbEntity
   8
LEVEL001
 370
15
 100
AcDbLine
   6
CONTINUOUS
  62
2
  10
 233.85464413262
  20
 17.436946636351
  30
0.0
  11
 234.79711490353
  21
 18.379417407262
  31
0.0
   0
LINE
   5
418
 100
AcDbEntity
   8
LEVEL001
 370
15
 100
AcDbLine
   6
CONTINUOUS
  62
2
  10
 238.96378157020
  20
 22.546084073929
  30
0.0
  11
 241.54711490353
  21
 25.129417407262
  31
0.0
   0
LINE
   5
419
 100
AcDbEntity
   8
LEVEL001
 370
15
 100
AcDbLine
   6
CONTINUOUS
  62
2
  10
 236.45642225732
  20
 15.796084073929
  30
0.0
  11
 239.03975559065
  21
 18.379417407262
  31
0.0
   0
LINE
   5
41A
 100
AcDbEntity
   8
LEVEL001
 370
15
 100
AcDbLine
   6
CONTINUOUS
  62
2
  10
 243.20642225732
  20
 22.546084073929
  30
0.0
  11
 245.57789966137
  21
 24.917561477984
  31
0.0
   0
LINE
   5
41B
 100
AcDbEntity
   8
LEVEL001
 370
15
 100
AcDbLine
   6
CONTINUOUS
  62
2
  10
 241.17046746523
  20
 15.796084073929
  30
0.0
  11
 243.75380079856
  21
 18.379417407262
  31
0.0
   0
LINE
   5
41C
 100
AcDbEntity
   8
LEVEL001
 370
15
 100
AcDbLine
   6
CONTINUOUS
  62
2
  10
 245.52111103177
  20
 20.146727640477
  30
0.0
  11
 248.20757637107
  21
 22.833192979775
  31
0.0
   0
LINE
   5
41D
 100
AcDbEntity
   8
LEVEL001
 370
15
 100
AcDbLine
   6
CONTINUOUS
  62
2
  10
 240.69906294444
  20
 15.796084073929
  30
0.0
  11
 243.28239627777
  21
 18.379417407262
  31
0.0
   0
LINE
   5
41E
 100
AcDbEntity
   8
LEVEL001
 370
15
 100
AcDbLine
   6
CONTINUOUS
  62
2
  10
 245.52111103177
  20
 20.618132161268
  30
0.0
  11
 248.02359769349
  21
 23.120618822982
  31
0.0
   0
LINE
   5
41F
 100
AcDbEntity
   8
LEVEL001
 370
15
 100
AcDbLine
   6
CONTINUOUS
  62
2
  10
 240.22765842364
  20
 15.796084073929
  30
0.0
  11
 242.81099175698
  21
 18.379417407262
  31
0.0
   0
LINE
   5
420
 100
AcDbEntity
   8
LEVEL001
 370
15
 100
AcDbLine
   6
CONTINUOUS
  62
2
  10
 245.52111103177
  20
 21.089536682059
  30
0.0
  11
 247.82191813727
  21
 23.390343787558
  31
0.0
   0
LINE
   5
421
 100
AcDbEntity
   8
LEVEL001
 370
15
 100
AcDbLine
   6
CONTINUOUS
  62
2
  10
 239.75625390285
  20
 15.796084073929
  30
0.0
  11
 242.33958723619
  21
 18.379417407262
  31
0.0
   0
LINE
   5
422
 100
AcDbEntity
   8
LEVEL001
 370
15
 100
AcDbLine
   6
CONTINUOUS
  62
2
  10
 245.52111103177
  20
 21.560941202850
  30
0.0
  11
 247.60308560714
  21
 23.642915778220
  31
0.0
   0
LINE
   5
423
 100
AcDbEntity
   8
LEVEL001
 370
15
 100
AcDbLine
   6
CONTINUOUS
  62
2
  10
 239.28484938206
  20
 15.796084073929
  30
0.0
  11
 241.86818271540
  21
 18.379417407262
  31
0.0
   0
LINE
   5
424
 100
AcDbEntity
   8
LEVEL001
 370
15
 100
AcDbLine
   6
CONTINUOUS
  62
2
  10
 245.52111103177
  20
 22.032345723641
  30
0.0
  11
 247.36736335581
  21
 23.878598047672
  31
0.0
   0
LINE
   5
425
 100
AcDbEntity
   8
LEVEL001
 370
15
 100
AcDbLine
   6
CONTINUOUS
  62
2
  10
 238.81344486127
  20
 15.796084073929
  30
0.0
  11
 241.39677819460
  21
 18.379417407262
  31
0.0
   0
LINE
   5
426
 100
AcDbEntity
   8
LEVEL001
 370
15
 100
AcDbLine
   6
CONTINUOUS
  62
2
  10
 245.52111103177
  20
 22.503750244432
  30
0.0
  11
 247.11475107451
  21
 24.097390287172
  31
0.0
   0
LINE
   5
427
 100
AcDbEntity
   8
LEVEL001
 370
15
 100
AcDbLine
   6
CONTINUOUS
  62
2
  10
 238.34204034048
  20
 15.796084073929
  30
0.0
  11
 240.92537367381
  21
 18.379417407262
  31
0.0
   0
LINE
   5
428
 100
AcDbEntity
   8
LEVEL001
 370
15
 100
AcDbLine
   6
CONTINUOUS
  62
2
  10
 245.09204034048
  20
 22.546084073929
  30
0.0
  11
 246.84498486878
  21
 24.299028602230
  31
0.0
   0
LINE
   5
429
 100
AcDbEntity
   8
LEVEL001
 370
15
 100
AcDbLine
   6
CONTINUOUS
  62
2
  10
 237.87063581969
  20
 15.796084073929
  30
0.0
  11
 240.45396915302
  21
 18.379417407262
  31
0.0
   0
LINE
   5
42A
 100
AcDbEntity
   8
LEVEL001
 370
15
 100
AcDbLine
   6
CONTINUOUS
  62
2
  10
 244.62063581969
  20
 22.546084073929
  30
0.0
  11
 246.55751611460
  21
 24.482964368843
  31
0.0
   0
LINE
   5
42B
 100
AcDbEntity
   8
LEVEL001
 370
15
 100
AcDbLine
   6
CONTINUOUS
  62
2
  10
 237.39923129890
  20
 15.796084073929
  30
0.0
  11
 239.98256463223
  21
 18.379417407262
  31
0.0
   0
LINE
   5
42C
 100
AcDbEntity
   8
LEVEL001
 370
15
 100
AcDbLine
   6
CONTINUOUS
  62
2
  10
 244.14923129890
  20
 22.546084073929
  30
0.0
  11
 246.25146508796
  21
 24.648317862994
  31
0.0
   0
LINE
   5
42D
 100
AcDbEntity
   8
LEVEL001
 370
15
 100
AcDbLine
   6
CONTINUOUS
  62
2
  10
 236.92782677811
  20
 15.796084073929
  30
0.0
  11
 239.51116011144
  21
 18.379417407262
  31
0.0
   0
LINE
   5
42E
 100
AcDbEntity
   8
LEVEL001
 370
15
 100
AcDbLine
   6
CONTINUOUS
  62
2
  10
 243.67782677811
  20
 22.546084073929
  30
0.0
  11
 245.92553964553
  21
 24.793796941347
  31
0.0
   0
LINE
   5
42F
 100
AcDbEntity
   8
LEVEL001
 370
15
 100
AcDbLine
   6
CONTINUOUS
  62
2
  10
 245.64717564939
  20
 16.030151570971
  30
0.0
  11
 248.62037686807
  21
 19.003352789649
  31
0.0
   0
LINE
   5
430
 100
AcDbEntity
   8
LEVEL001
 370
15
 100
AcDbLine
   6
CONTINUOUS
  62
2
  10
 245.01573958179
  20
 15.870120024165
  30
0.0
  11
 248.78040841487
  21
 19.634788857245
  31
0.0
   0
LINE
   5
431
 100
AcDbEntity
   8
LEVEL001
 370
15
 100
AcDbLine
   6
CONTINUOUS
  62
2
  10
 244.47942115934
  20
 15.805206122506
  30
0.0
  11
 248.84532231653
  21
 20.171107279696
  31
0.0
   0
LINE
   5
432
 100
AcDbEntity
   8
LEVEL001
 370
15
 100
AcDbLine
   6
CONTINUOUS
  62
2
  10
 243.99889458997
  20
 15.796084073929
  30
0.0
  11
 248.85076776152
  21
 20.647957245472
  31
0.0
   0
LINE
   5
433
 100
AcDbEntity
   8
LEVEL001
 370
15
 100
AcDbLine
   6
CONTINUOUS
  62
2
  10
 243.52749006918
  20
 15.796084073929
  30
0.0
  11
 248.81320302672
  21
 21.081797031472
  31
0.0
   0
LINE
   5
434
 100
AcDbEntity
   8
LEVEL001
 370
15
 100
AcDbLine
   6
CONTINUOUS
  62
2
  10
 243.05608554839
  20
 15.796084073929
  30
0.0
  11
 248.74181796730
  21
 21.481816492838
  31
0.0
   0
LINE
   5
435
 100
AcDbEntity
   8
LEVEL001
 370
15
 100
AcDbLine
   6
CONTINUOUS
  62
2
  10
 242.58468102760
  20
 15.796084073929
  30
0.0
  11
 245.16801436093
  21
 18.379417407262
  31
0.0
   0
LINE
   5
436
 100
AcDbEntity
   8
LEVEL001
 370
15
 100
AcDbLine
   6
CONTINUOUS
  62
2
  10
 245.52111103177
  20
 18.732514078104
  30
0.0
  11
 248.64232228432
  21
 21.853725330651
  31
0.0
   0
LINE
   5
437
 100
AcDbEntity
   8
LEVEL001
 370
15
 100
AcDbLine
   6
CONTINUOUS
  62
2
  10
 242.11327650681
  20
 15.796084073929
  30
0.0
  11
 244.69660984014
  21
 18.379417407262
  31
0.0
   0
LINE
   5
438
 100
AcDbEntity
   8
LEVEL001
 370
15
 100
AcDbLine
   6
CONTINUOUS
  62
2
  10
 245.52111103177
  20
 19.203918598895
  30
0.0
  11
 248.51850348357
  21
 22.201311050687
  31
0.0
   0
LINE
   5
439
 100
AcDbEntity
   8
LEVEL001
 370
15
 100
AcDbLine
   6
CONTINUOUS
  62
2
  10
 241.64187198602
  20
 15.796084073929
  30
0.0
  11
 244.22520531935
  21
 18.379417407262
  31
0.0
   0
LINE
   5
43A
 100
AcDbEntity
   8
LEVEL001
 370
15
 100
AcDbLine
   6
CONTINUOUS
  62
2
  10
 245.52111103177
  20
 19.675323119686
  30
0.0
  11
 248.37297531143
  21
 22.527187399344
  31
0.0
   0
LINE
   5
43B
 100
AcDbEntity
   8
LEVEL001
 370
15
 100
AcDbLine
   6
CONTINUOUS
  62
2
  10
 246.49445350430
  20
 16.406024905091
  30
0.0
  11
 248.24450353394
  21
 18.156074934737
  31
0.0
   0
LEADER
   5
43C
 100
AcDbEntity
   8
LEVEL001
 370
15
   6
CONTINUOUS
  62
8
 100
AcDbLeader
   3
GMM001
  73
0
  74
0
  75
0
  40
 3.0000000000000
  41
 31.500000000000
  76
2
  10
 240.91619286933
  20
 79.307429489335
  30
0.0
  10
 241.64269889342
  20
 72.786947561623
  30
0.0
  77
8
 340
43D
 213
0.0
 223
-0.50000000000000
 233
0.0
   0
MTEXT
   5
43D
 102
{ACAD_REACTORS
 330
43C
 102
}
 100
AcDbEntity
   8
LEVEL001
 370
15
  62
8
 100
AcDbMText
  10
 243.14269889342
  20
 73.286947561623
  30
0.0
  40
 3.0000000000000
  41
0.0
  71
7
  72
1
   1
\A1;Ｈ形鋼用エッジカバー
   7
GMM001
   0
LEADER
   5
43E
 100
AcDbEntity
   8
LEVEL001
 370
15
   6
CONTINUOUS
  62
8
 100
AcDbLeader
   3
GMM001
  73
0
  74
0
  75
0
  40
 3.0000000000000
  41
 10.500000000000
  76
2
  10
 212.32743784925
  20
 52.059236718249
  30
0.0
  10
 215.72864266852
  20
 45.220682501381
  30
0.0
  77
8
 340
43F
 213
0.0
 223
-0.50000000000000
 233
0.0
   0
MTEXT
   5
43F
 102
{ACAD_REACTORS
 330
43E
 102
}
 100
AcDbEntity
   8
LEVEL001
 370
15
  62
8
 100
AcDbMText
  10
 217.22864266852
  20
 45.720682501381
  30
0.0
  40
 3.0000000000000
  41
0.0
  71
7
  72
1
   1
\A1;Ｈ形鋼
   7
GMM001
   0
MTEXT
   5
441
 100
AcDbEntity
   8
LEVEL002
 370
25
  62
1
 100
AcDbMText
  10
 29.299999999998
  20
 280.00000000000
  30
0.0
  40
 3.0000000000000
  41
0.0
  71
5
  72
1
   1
\T1.000000;　ＨＳＥＣ９
   7
GMM002
  44
 0.79999984000003
   0
MTEXT
   5
443
 100
AcDbEntity
   8
LEVEL002
 370
25
  62
1
 100
AcDbMText
  10
 173.80000000000
  20
 280.00000000000
  30
0.0
  40
 3.0000000000000
  41
0.0
  71
5
  72
1
   1
\T1.000000;　ＨＳＥＣ１２
   7
GMM002
  44
 0.79999984000003
   0
MTEXT
   5
445
 100
AcDbEntity
   8
LEVEL001
 370
25
  62
1
 100
AcDbMText
  10
 29.299999999998
  20
 280.00000000000
  30
0.0
  40
 3.0000000000000
  41
0.0
  71
5
  72
1
   1
\T1.000000;　ＨＳＥＣ９
   7
GMM002
  44
 0.79999984000003
   0
MTEXT
   5
447
 100
AcDbEntity
   8
LEVEL001
 370
25
  62
1
 100
AcDbMText
  10
 173.80000000000
  20
 280.00000000000
  30
0.0
  40
 3.0000000000000
  41
0.0
  71
5
  72
1
   1
\T1.000000;　ＨＳＥＣ１２
   7
GMM002
  44
 0.79999984000003
   0
MTEXT
   5
449
 100
AcDbEntity
   8
LEVEL002
 370
25
  62
1
 100
AcDbMText
  10
 336.95000000005
  20
 273.87500000000
  30
0.0
  40
 3.7500000000000
  41
0.0
  71
7
  72
1
   1
\T1.000000;ケージーパルテック株式会社
   7
GMM002
  44
 0.79999984000003
   0
MTEXT
   5
44B
 100
AcDbEntity
   8
LEVEL002
 370
25
  62
1
 100
AcDbMText
  10
 30.799999999998
  20
 189.00000000000
  30
0.0
  40
 3.0000000000000
  41
0.0
  71
5
  72
1
   1
\T1.000000;　ＨＳＥＣ１５
   7
GMM001
  44
 0.79999984000003
   0
MTEXT
   5
44D
 100
AcDbEntity
   8
LEVEL002
 370
25
  62
1
 100
AcDbMText
  10
 14.711211129294
  20
 270.05285051828
  30
0.0
  40
 3.0000000000000
  41
0.0
  71
4
  72
1
   1
\W1.000000;\T1.000000;　Ｈ形鋼：９\W0.500000;\T1.000000;.\W1.000000;\T1.000000;５\W0.500000;\T1.000000;m/m
   7
GMM001
  44
 0.79999984000003
   0
MTEXT
   5
44F
 100
AcDbEntity
   8
LEVEL002
 370
25
  62
1
 100
AcDbMText
  10
 159.21121112929
  20
 270.05285051828
  30
0.0
  40
 3.0000000000000
  41
0.0
  71
4
  72
1
   1
\W1.000000;\T1.000000;　Ｈ形鋼：１２\W0.500000;\T1.000000;.\W1.000000;\T1.000000;５\W0.500000;\T1.000000;m/m
   7
GMM001
  44
 0.79999984000003
   0
MTEXT
   5
451
 100
AcDbEntity
   8
LEVEL002
 370
25
  62
1
 100
AcDbMText
  10
 14.711211129294
  20
 179.05285051828
  30
0.0
  40
 3.0000000000000
  41
0.0
  71
4
  72
1
   1
\W1.000000;\T1.000000;　Ｈ形鋼：１５\W0.500000;\T1.000000;.\W1.000000;\T1.000000;５\W0.500000;\T1.000000;m/m
   7
GMM001
  44
 0.79999984000003
   0
MTEXT
   5
453
 100
AcDbEntity
   8
LEVEL001
 370
25
  62
1
 100
AcDbMText
  10
 30.799999999998
  20
 189.00000000000
  30
0.0
  40
 3.0000000000000
  41
0.0
  71
5
  72
1
   1
\T1.000000;　ＨＳＥＣ１５
   7
GMM001
  44
 0.79999984000003
   0
MTEXT
   5
455
 100
AcDbEntity
   8
LEVEL001
 370
25
  62
1
 100
AcDbMText
  10
 14.711211129294
  20
 270.05285051828
  30
0.0
  40
 3.0000000000000
  41
0.0
  71
4
  72
1
   1
\W1.000000;\T1.000000;　Ｈ形鋼：９\W0.500000;\T1.000000;.\W1.000000;\T1.000000;５\W0.500000;\T1.000000;m/m
   7
GMM001
  44
 0.79999984000003
   0
MTEXT
   5
457
 100
AcDbEntity
   8
LEVEL001
 370
25
  62
1
 100
AcDbMText
  10
 159.21121112929
  20
 270.05285051828
  30
0.0
  40
 3.0000000000000
  41
0.0
  71
4
  72
1
   1
\W1.000000;\T1.000000;　Ｈ形鋼：１２\W0.500000;\T1.000000;.\W1.000000;\T1.000000;５\W0.500000;\T1.000000;m/m
   7
GMM001
  44
 0.79999984000003
   0
MTEXT
   5
459
 100
AcDbEntity
   8
LEVEL001
 370
25
  62
1
 100
AcDbMText
  10
 14.711211129294
  20
 179.05285051828
  30
0.0
  40
 3.0000000000000
  41
0.0
  71
4
  72
1
   1
\W1.000000;\T1.000000;　Ｈ形鋼：１５\W0.500000;\T1.000000;.\W1.000000;\T1.000000;５\W0.500000;\T1.000000;m/m
   7
GMM001
  44
 0.79999984000003
   0
MTEXT
   5
45B
 100
AcDbEntity
   8
LEVEL002
 370
25
  62
1
 100
AcDbMText
  10
 119.11257602389
  20
 236.00596371057
  30
0.0
  40
 3.0000000000000
  41
0.0
  71
7
  72
1
   1
\T1.000000;２４
   7
GMM001
  11
0.0
  21
 1.0000000000000
  31
0.0
  44
 0.79999984000003
   0
MTEXT
   5
45D
 100
AcDbEntity
   8
LEVEL002
 370
25
  62
1
 100
AcDbMText
  10
 97.362576023894
  20
 217.75596371057
  30
0.0
  40
 3.0000000000000
  41
0.0
  71
7
  72
1
   1
\T1.000000;１０
   7
GMM001
  44
 0.79999984000003
   0
MTEXT
   5
45F
 100
AcDbEntity
   8
LEVEL002
 370
25
  62
1
 100
AcDbMText
  10
 79.862576023894
  20
 207.75596371057
  30
0.0
  40
 3.0000000000000
  41
0.0
  71
7
  72
1
   1
\T1.000000;４５
   7
GMM001
  44
 0.79999984000003
   0
MTEXT
   5
461
 100
AcDbEntity
   8
LEVEL002
 370
25
  62
1
 100
AcDbMText
  10
 49.112576023894
  20
 235.38096371057
  30
0.0
  40
 3.0000000000000
  41
0.0
  71
7
  72
1
   1
\W1.000000;\T1.000000;９\W0.500000;\T1.000000;.\W1.000000;\T1.000000;５
   7
GMM001
  11
0.0
  21
 1.0000000000000
  31
0.0
  44
 0.79999984000003
   0
MTEXT
   5
463
 100
AcDbEntity
   8
LEVEL002
 370
25
  62
1
 100
AcDbMText
  10
 274.50082843342
  20
 236.00596371057
  30
0.0
  40
 3.0000000000000
  41
0.0
  71
7
  72
1
   1
\T1.000000;２８
   7
GMM001
  11
0.0
  21
 1.0000000000000
  31
0.0
  44
 0.79999984000003
   0
MTEXT
   5
465
 100
AcDbEntity
   8
LEVEL002
 370
25
  62
1
 100
AcDbMText
  10
 252.75082843342
  20
 215.75596371057
  30
0.0
  40
 3.0000000000000
  41
0.0
  71
7
  72
1
   1
\T1.000000;１０
   7
GMM001
  44
 0.79999984000003
   0
MTEXT
   5
467
 100
AcDbEntity
   8
LEVEL002
 370
25
  62
1
 100
AcDbMText
  10
 204.50082843342
  20
 234.13096371057
  30
0.0
  40
 3.0000000000000
  41
0.0
  71
7
  72
1
   1
\W1.000000;\T1.000000;１２\W0.500000;\T1.000000;.\W1.000000;\T1.000000;５
   7
GMM001
  11
0.0
  21
 1.0000000000000
  31
0.0
  44
 0.79999984000003
   0
MTEXT
   5
469
 100
AcDbEntity
   8
LEVEL002
 370
25
  62
1
 100
AcDbMText
  10
 235.25082843342
  20
 205.75596371057
  30
0.0
  40
 3.0000000000000
  41
0.0
  71
7
  72
1
   1
\T1.000000;４５
   7
GMM001
  44
 0.79999984000003
   0
MTEXT
   5
46B
 100
AcDbEntity
   8
LEVEL002
 370
25
  62
1
 100
AcDbMText
  10
 119.11257602389
  20
 149.37877088764
  30
0.0
  40
 3.0000000000000
  41
0.0
  71
7
  72
1
   1
\T1.000000;３２
   7
GMM001
  11
0.0
  21
 1.0000000000000
  31
0.0
  44
 0.79999984000003
   0
MTEXT
   5
46D
 100
AcDbEntity
   8
LEVEL002
 370
25
  62
1
 100
AcDbMText
  10
 97.362576023894
  20
 127.12877088764
  30
0.0
  40
 3.0000000000000
  41
0.0
  71
7
  72
1
   1
\T1.000000;１０
   7
GMM001
  44
 0.79999984000003
   0
MTEXT
   5
46F
 100
AcDbEntity
   8
LEVEL002
 370
25
  62
1
 100
AcDbMText
  10
 49.112576023894
  20
 147.50377088764
  30
0.0
  40
 3.0000000000000
  41
0.0
  71
7
  72
1
   1
\W1.000000;\T1.000000;１５\W0.500000;\T1.000000;.\W1.000000;\T1.000000;５
   7
GMM001
  11
0.0
  21
 1.0000000000000
  31
0.0
  44
 0.79999984000003
   0
MTEXT
   5
471
 100
AcDbEntity
   8
LEVEL002
 370
25
  62
1
 100
AcDbMText
  10
 79.862576023894
  20
 117.12877088764
  30
0.0
  40
 3.0000000000000
  41
0.0
  71
7
  72
1
   1
\T1.000000;４５
   7
GMM001
  44
 0.79999984000003
   0
MTEXT
   5
473
 100
AcDbEntity
   8
LEVEL001
 370
25
  62
1
 100
AcDbMText
  10
 119.11257602389
  20
 236.00596371057
  30
0.0
  40
 3.0000000000000
  41
0.0
  71
7
  72
1
   1
\T1.000000;２４
   7
GMM001
  11
0.0
  21
 1.0000000000000
  31
0.0
  44
 0.79999984000003
   0
MTEXT
   5
475
 100
AcDbEntity
   8
LEVEL001
 370
25
  62
1
 100
AcDbMText
  10
 97.362576023894
  20
 217.75596371057
  30
0.0
  40
 3.0000000000000
  41
0.0
  71
7
  72
1
   1
\T1.000000;１０
   7
GMM001
  44
 0.79999984000003
   0
MTEXT
   5
477
 100
AcDbEntity
   8
LEVEL001
 370
25
  62
1
 100
AcDbMText
  10
 79.862576023894
  20
 207.75596371057
  30
0.0
  40
 3.0000000000000
  41
0.0
  71
7
  72
1
   1
\T1.000000;４５
   7
GMM001
  44
 0.79999984000003
   0
MTEXT
   5
479
 100
AcDbEntity
   8
LEVEL001
 370
25
  62
1
 100
AcDbMText
  10
 49.112576023894
  20
 235.38096371057
  30
0.0
  40
 3.0000000000000
  41
0.0
  71
7
  72
1
   1
\W1.000000;\T1.000000;９\W0.500000;\T1.000000;.\W1.000000;\T1.000000;５
   7
GMM001
  11
0.0
  21
 1.0000000000000
  31
0.0
  44
 0.79999984000003
   0
MTEXT
   5
47B
 100
AcDbEntity
   8
LEVEL001
 370
25
  62
1
 100
AcDbMText
  10
 274.50082843342
  20
 236.00596371057
  30
0.0
  40
 3.0000000000000
  41
0.0
  71
7
  72
1
   1
\T1.000000;２８
   7
GMM001
  11
0.0
  21
 1.0000000000000
  31
0.0
  44
 0.79999984000003
   0
MTEXT
   5
47D
 100
AcDbEntity
   8
LEVEL001
 370
25
  62
1
 100
AcDbMText
  10
 252.75082843342
  20
 215.75596371057
  30
0.0
  40
 3.0000000000000
  41
0.0
  71
7
  72
1
   1
\T1.000000;１０
   7
GMM001
  44
 0.79999984000003
   0
MTEXT
   5
47F
 100
AcDbEntity
   8
LEVEL001
 370
25
  62
1
 100
AcDbMText
  10
 204.50082843342
  20
 234.13096371057
  30
0.0
  40
 3.0000000000000
  41
0.0
  71
7
  72
1
   1
\W1.000000;\T1.000000;１２\W0.500000;\T1.000000;.\W1.000000;\T1.000000;５
   7
GMM001
  11
0.0
  21
 1.0000000000000
  31
0.0
  44
 0.79999984000003
   0
MTEXT
   5
481
 100
AcDbEntity
   8
LEVEL001
 370
25
  62
1
 100
AcDbMText
  10
 235.25082843342
  20
 205.75596371057
  30
0.0
  40
 3.0000000000000
  41
0.0
  71
7
  72
1
   1
\T1.000000;４５
   7
GMM001
  44
 0.79999984000003
   0
MTEXT
   5
483
 100
AcDbEntity
   8
LEVEL001
 370
25
  62
1
 100
AcDbMText
  10
 119.11257602389
  20
 149.37877088764
  30
0.0
  40
 3.0000000000000
  41
0.0
  71
7
  72
1
   1
\T1.000000;３２
   7
GMM001
  11
0.0
  21
 1.0000000000000
  31
0.0
  44
 0.79999984000003
   0
MTEXT
   5
485
 100
AcDbEntity
   8
LEVEL001
 370
25
  62
1
 100
AcDbMText
  10
 97.362576023894
  20
 127.12877088764
  30
0.0
  40
 3.0000000000000
  41
0.0
  71
7
  72
1
   1
\T1.000000;１０
   7
GMM001
  44
 0.79999984000003
   0
MTEXT
   5
487
 100
AcDbEntity
   8
LEVEL001
 370
25
  62
1
 100
AcDbMText
  10
 49.112576023894
  20
 147.50377088764
  30
0.0
  40
 3.0000000000000
  41
0.0
  71
7
  72
1
   1
\W1.000000;\T1.000000;１５\W0.500000;\T1.000000;.\W1.000000;\T1.000000;５
   7
GMM001
  11
0.0
  21
 1.0000000000000
  31
0.0
  44
 0.79999984000003
   0
MTEXT
   5
489
 100
AcDbEntity
   8
LEVEL001
 370
25
  62
1
 100
AcDbMText
  10
 79.862576023894
  20
 117.12877088764
  30
0.0
  40
 3.0000000000000
  41
0.0
  71
7
  72
1
   1
\T1.000000;４５
   7
GMM001
  44
 0.79999984000003
   0
MTEXT
   5
48B
 100
AcDbEntity
   8
LEVEL001
 370
25
  62
1
 100
AcDbMText
  10
 279.25273905407
  20
 16.617068043549
  30
0.0
  40
 3.0000000000000
  41
0.0
  71
5
  72
1
   1
\T1.000000;※取付時接着剤との併用下さい
   7
GMM001
  44
 0.79999984000003
   0
MTEXT
   5
48D
 100
AcDbEntity
   8
LEVEL001
 370
25
  62
1
 100
AcDbMText
  10
 175.30000000000
  20
 98.000000000001
  30
0.0
  40
 3.0000000000000
  41
0.0
  71
5
  72
1
   1
\T1.000000;　納まり参考図
   7
GMM001
  44
 0.79999984000003
   0
MTEXT
   5
48F
 100
AcDbEntity
   8
LEVEL002
 370
25
  62
1
 100
AcDbMText
  10
 310.80000000000
  20
 253.00000000000
  30
0.0
  40
 3.0000000000000
  41
0.0
  71
5
  72
1
   1
\T1.000000;商品名：
   7
GMM002
  44
 0.79999984000003
   0
MTEXT
   5
491
 100
AcDbEntity
   8
LEVEL002
 370
25
  62
1
 100
AcDbMText
  10
 309.30000000000
  20
 233.00000000000
  30
0.0
  40
 3.0000000000000
  41
0.0
  71
5
  72
1
   1
\T1.000000;形式：
   7
GMM002
  44
 0.79999984000003
   0
MTEXT
   5
493
 100
AcDbEntity
   8
LEVEL002
 370
25
  62
1
 100
AcDbMText
  10
 309.30000000000
  20
 213.00000000000
  30
0.0
  40
 3.0000000000000
  41
0.0
  71
5
  72
1
   1
\T1.000000;仕様：
   7
GMM002
  44
 0.79999984000003
   0
MTEXT
   5
495
 100
AcDbEntity
   8
LEVEL002
 370
25
  62
1
 100
AcDbMText
  10
 312.30000000000
  20
 68.250000000001
  30
0.0
  40
 3.0000000000000
  41
0.0
  71
5
  72
1
   1
\T1.000000;図面名称：
   7
GMM002
  44
 0.79999984000003
   0
MTEXT
   5
497
 100
AcDbEntity
   8
LEVEL002
 370
25
  62
1
 100
AcDbMText
  10
 309.30000000000
  20
 48.250000000001
  30
0.0
  40
 3.0000000000000
  41
0.0
  71
5
  72
1
   1
\T1.000000;縮尺：
   7
GMM002
  44
 0.79999984000003
   0
MTEXT
   5
499
 100
AcDbEntity
   8
LEVEL002
 370
25
  62
1
 100
AcDbMText
  10
 313.80000000000
  20
 28.721535228627
  30
0.0
  40
 3.0000000000000
  41
0.0
  71
5
  72
1
   1
\T1.000000;用紙サイズ：
   7
GMM002
  44
 0.79999984000003
   0
MTEXT
   5
49B
 100
AcDbEntity
   8
LEVEL002
 370
25
  62
1
 100
AcDbMText
  10
 362.30000000000
  20
 48.666666666668
  30
0.0
  40
 2.8000000000000
  41
0.0
  71
5
  72
1
   1
\T1.000000;作成日付：
   7
GMM002
  44
 0.79999984000003
   0
MTEXT
   5
49D
 100
AcDbEntity
   8
LEVEL002
 370
25
  62
1
 100
AcDbMText
  10
 362.30000000000
  20
 42.000000000001
  30
0.0
  40
 2.8000000000000
  41
0.0
  71
5
  72
1
   1
\T1.000000;変更日付：
   7
GMM002
  44
 0.79999984000003
   0
MTEXT
   5
49F
 100
AcDbEntity
   8
LEVEL002
 370
25
  62
1
 100
AcDbMText
  10
 363.80000000000
  20
 28.250000000001
  30
0.0
  40
 3.0000000000000
  41
0.0
  71
5
  72
1
   1
\T1.000000;ファイル名：
   7
GMM002
  44
 0.79999984000003
   0
MTEXT
   5
4A1
 100
AcDbEntity
   8
LEVEL001
 370
25
  62
1
 100
AcDbMText
  10
 310.80000000000
  20
 253.00000000000
  30
0.0
  40
 3.0000000000000
  41
0.0
  71
5
  72
1
   1
\T1.000000;商品名：
   7
GMM002
  44
 0.79999984000003
   0
MTEXT
   5
4A3
 100
AcDbEntity
   8
LEVEL001
 370
25
  62
1
 100
AcDbMText
  10
 309.30000000000
  20
 233.00000000000
  30
0.0
  40
 3.0000000000000
  41
0.0
  71
5
  72
1
   1
\T1.000000;形式：
   7
GMM002
  44
 0.79999984000003
   0
MTEXT
   5
4A5
 100
AcDbEntity
   8
LEVEL001
 370
25
  62
1
 100
AcDbMText
  10
 309.30000000000
  20
 213.00000000000
  30
0.0
  40
 3.0000000000000
  41
0.0
  71
5
  72
1
   1
\T1.000000;仕様：
   7
GMM002
  44
 0.79999984000003
   0
MTEXT
   5
4A7
 100
AcDbEntity
   8
LEVEL001
 370
25
  62
1
 100
AcDbMText
  10
 312.30000000000
  20
 68.250000000001
  30
0.0
  40
 3.0000000000000
  41
0.0
  71
5
  72
1
   1
\T1.000000;図面名称：
   7
GMM002
  44
 0.79999984000003
   0
MTEXT
   5
4A9
 100
AcDbEntity
   8
LEVEL001
 370
25
  62
1
 100
AcDbMText
  10
 309.30000000000
  20
 48.250000000001
  30
0.0
  40
 3.0000000000000
  41
0.0
  71
5
  72
1
   1
\T1.000000;縮尺：
   7
GMM002
  44
 0.79999984000003
   0
MTEXT
   5
4AB
 100
AcDbEntity
   8
LEVEL001
 370
25
  62
1
 100
AcDbMText
  10
 313.80000000000
  20
 28.721535228627
  30
0.0
  40
 3.0000000000000
  41
0.0
  71
5
  72
1
   1
\T1.000000;用紙サイズ：
   7
GMM002
  44
 0.79999984000003
   0
MTEXT
   5
4AD
 100
AcDbEntity
   8
LEVEL001
 370
25
  62
1
 100
AcDbMText
  10
 362.30000000000
  20
 48.666666666668
  30
0.0
  40
 2.8000000000000
  41
0.0
  71
5
  72
1
   1
\T1.000000;作成日付：
   7
GMM002
  44
 0.79999984000003
   0
MTEXT
   5
4AF
 100
AcDbEntity
   8
LEVEL001
 370
25
  62
1
 100
AcDbMText
  10
 362.30000000000
  20
 42.000000000001
  30
0.0
  40
 2.8000000000000
  41
0.0
  71
5
  72
1
   1
\T1.000000;変更日付：
   7
GMM002
  44
 0.79999984000003
   0
MTEXT
   5
4B1
 100
AcDbEntity
   8
LEVEL001
 370
25
  62
1
 100
AcDbMText
  10
 363.80000000000
  20
 28.250000000001
  30
0.0
  40
 3.0000000000000
  41
0.0
  71
5
  72
1
   1
\T1.000000;ファイル名：
   7
GMM002
  44
 0.79999984000003
   0
MTEXT
   5
4B3
 100
AcDbEntity
   8
LEVEL002
 370
25
  62
1
 100
AcDbMText
  10
 354.50000000000
  20
 246.75000000000
  30
0.0
  40
 4.0000000000000
  41
0.0
  71
5
  72
1
   1
\T1.000000;Ｈ形鋼用エッジカバー
   7
GMM001
  44
 0.79999984000003
   0
MTEXT
   5
4B5
 100
AcDbEntity
   8
LEVEL002
 370
25
  62
1
 100
AcDbMText
  10
 354.50000000000
  20
 225.33333333334
  30
0.0
  40
 3.5000000000000
  41
0.0
  71
5
  72
1
   1
\T1.000000;ＨＳＥＣタイプ
   7
GMM003
  44
 0.79999984000003
   0
MTEXT
   5
4B7
 100
AcDbEntity
   8
LEVEL001
 370
25
  62
1
 100
AcDbMText
  10
 354.50000000000
  20
 246.75000000000
  30
0.0
  40
 4.0000000000000
  41
0.0
  71
5
  72
1
   1
\T1.000000;Ｈ形鋼用エッジカバー
   7
GMM001
  44
 0.79999984000003
   0
MTEXT
   5
4B9
 100
AcDbEntity
   8
LEVEL001
 370
25
  62
1
 100
AcDbMText
  10
 354.50000000000
  20
 225.33333333334
  30
0.0
  40
 3.5000000000000
  41
0.0
  71
5
  72
1
   1
\T1.000000;ＨＳＥＣタイプ
   7
GMM003
  44
 0.79999984000003
   0
MTEXT
   5
4BB
 100
AcDbEntity
   8
LEVEL002
 370
25
  62
1
 100
AcDbMText
  10
 314.50000000000
  20
 204.75000000000
  30
0.0
  40
 3.0000000000000
  41
0.0
  71
7
  72
1
   1
\T1.000000;材質：合成ゴム
   7
GMM001
  44
 0.79999984000003
   0
MTEXT
   5
4BD
 100
AcDbEntity
   8
LEVEL002
 370
25
  62
1
 100
AcDbMText
  10
 314.50000000000
  20
 200.75000000000
  30
0.0
  40
 3.0000000000000
  41
0.0
  71
7
  72
1
   1
\W1.000000;\T1.000000;長さ：２０００\W0.500000;\T1.000000;m/m･\W1.000000;\T1.000000;３０００\W0.500000;\T1.000000;m/m
   7
GMM001
  44
 0.79999984000003
   0
MTEXT
   5
4BF
 100
AcDbEntity
   8
LEVEL002
 370
25
  62
1
 100
AcDbMText
  10
 349.26087571475
  20
 75.714756218301
  30
0.0
  40
 4.0000000000000
  41
0.0
  71
5
  72
1
   1
\T1.000000;※本製品は予告無しに変更する事があります。
   7
GMM002
  44
 0.79999984000003
   0
MTEXT
   5
4C1
 100
AcDbEntity
   8
LEVEL002
 370
25
  62
1
 100
AcDbMText
  10
 329.50000000000
  20
 18.250000000001
  30
0.0
  40
 3.0000000000000
  41
0.0
  71
5
  72
1
   1
\T1.000000;Ａ３
   7
GMM001
  44
 0.79999984000003
   0
MTEXT
   5
4C3
 100
AcDbEntity
   8
LEVEL002
 370
25
  62
1
 100
AcDbMText
  10
 329.50000000000
  20
 38.250000000001
  30
0.0
  40
 3.0000000000000
  41
0.0
  71
5
  72
1
   1
\T1.000000;Ｓ＝１：１　
   7
GMM001
  44
 0.79999984000003
   0
MTEXT
   5
4C5
 100
AcDbEntity
   8
LEVEL001
 370
25
  62
1
 100
AcDbMText
  10
 329.50000000000
  20
 18.250000000001
  30
0.0
  40
 3.0000000000000
  41
0.0
  71
5
  72
1
   1
\T1.000000;Ａ３
   7
GMM001
  44
 0.79999984000003
   0
MTEXT
   5
4C7
 100
AcDbEntity
   8
LEVEL001
 370
25
  62
1
 100
AcDbMText
  10
 329.50000000000
  20
 38.250000000001
  30
0.0
  40
 3.0000000000000
  41
0.0
  71
5
  72
1
   1
\T1.000000;Ｓ＝１：１　
   7
GMM001
  44
 0.79999984000003
   0
MTEXT
   5
4C9
 100
AcDbEntity
   8
LEVEL002
 370
25
  62
1
 100
AcDbMText
  10
 387.21508456080
  20
 48.666666666668
  30
0.0
  40
 3.0000000000000
  41
0.0
  71
5
  72
1
   1
\T1.000000;平成２５年１１月　５日
   7
GMM001
  44
 0.79999984000003
   0
MTEXT
   5
4CB
 100
AcDbEntity
   8
LEVEL002
 370
25
  62
1
 100
AcDbMText
  10
 379.50000000000
  20
 18.250000000001
  30
0.0
  40
 3.0000000000000
  41
0.0
  71
5
  72
1
   1
\T1.000000;ＨＳＥＣ－１
   7
GMM001
  44
 0.79999984000003
   0
MTEXT
   5
4CD
 100
AcDbEntity
   8
LEVEL001
 370
25
  62
1
 100
AcDbMText
  10
 387.21508456080
  20
 48.666666666668
  30
0.0
  40
 3.0000000000000
  41
0.0
  71
5
  72
1
   1
\T1.000000;平成２５年１１月　５日
   7
GMM001
  44
 0.79999984000003
   0
MTEXT
   5
4CF
 100
AcDbEntity
   8
LEVEL001
 370
25
  62
1
 100
AcDbMText
  10
 379.50000000000
  20
 18.250000000001
  30
0.0
  40
 3.0000000000000
  41
0.0
  71
5
  72
1
   1
\T1.000000;ＨＳＥＣ－１
   7
GMM001
  44
 0.79999984000003
   0
MTEXT
   5
4D1
 100
AcDbEntity
   8
LEVEL002
 370
25
  62
1
 100
AcDbMText
  10
 354.50000000000
  20
 58.250000000001
  30
0.0
  40
 3.0000000000000
  41
0.0
  71
5
  72
1
   1
\T1.000000;断面図
   7
GMM001
  44
 0.79999984000003
   0
MTEXT
   5
4D3
 100
AcDbEntity
   8
LEVEL001
 370
25
  62
1
 100
AcDbMText
  10
 354.50000000000
  20
 58.250000000001
  30
0.0
  40
 3.0000000000000
  41
0.0
  71
5
  72
1
   1
\T1.000000;断面図
   7
GMM001
  44
 0.79999984000003
   0
MTEXT
   5
4D5
 100
AcDbEntity
   8
LEVEL001
 370
25
  62
1
 100
AcDbMText
  10
 314.50000000000
  20
 207.75000000000
  30
0.0
  40
 3.0000000000000
  41
0.0
  71
1
  72
1
   3
{\W1.000000;\T1.000000;材質：合成ゴム（両面テープ付）}\P{\W1.000000;\T1.000000;長さ：２０００\W0.500000;\T1.000000;m/m･\W1.000000;\T1.000000;３０００\W0.500000;\T1.000000;m/m}\P{\W1.000000;\T1.000000;仕上：ブラック}\P{\W1.000000;\T1.000000;　　　セー
   1
フティイエロー}\P{\W0.500000;\T1.000000; }\P{\W1.000000;\T1.000000;※取寄品}
   7
GMM001
  44
 0.79999984000003
   0
MTEXT
   5
4D7
 100
AcDbEntity
   8
LEVEL001
 370
25
  62
1
 100
AcDbMText
  10
 387.21508456080
  20
 42.000000000001
  30
0.0
  40
 3.0000000000000
  41
0.0
  71
5
  72
1
   1
\T1.000000;令和０４年１１月１１日
   7
GMM001
  44
 0.79999984000003
   0
MTEXT
   5
4D9
 100
AcDbEntity
   8
LEVEL001
 370
25
  62
1
 100
AcDbMText
  10
 387.21508456080
  20
 35.333333333334
  30
0.0
  40
 3.0000000000000
  41
0.0
  71
5
  72
1
   1
\T1.000000;令和０６年０４月３０日
   7
GMM001
  44
 0.79999984000003
   0
ENDSEC
  0
SECTION
  2
OBJECTS
  0
DICTIONARY
  5
C
100
AcDbDictionary
  3
ACAD_GROUP
350
D
  3
ACAD_MLINESTYLE
350
1B
  3
DWGPROPS
350
1C
  0
DICTIONARY
  5
D
102
{ACAD_REACTORS
330
C
102
}
100
AcDbDictionary
  0
DICTIONARY
  5
1B
102
{ACAD_REACTORS
330
C
102
}
100
AcDbDictionary
  3
STANDARD
350
1D
  0
MLINESTYLE
  5
1D
102
{ACAD_REACTORS
330
1B
102
}
100
AcDbMlineStyle
  2
STANDARD
 70
     0
  3

 62
   256
 51
90.0
 52
90.0
 71
     2
 49
0.5
 62
   256
  6
BYLAYER
 49
-0.5
 62
   256
  6
BYLAYER
   0
XRECORD
   5
1C
 102
{ACAD_REACTORS
 330
C
 102
}
 330
C
 100
AcDbXrecord
 280
1
   1
DWGPROPS COOKIE
   2
 
   3
 
   4
 
   6
 
   7
HSEC-1
   8
 
   9

 300
 = 
 301
 = 
 302
 = 
 303
 = 
 304
 = 
 305
 = 
 306
 = 
 307
 = 
 308
 = 
 309
 = 
  40
0.0
  41
 2459894.5000000
  42
 2460430.5000000
   1

  90
10
   0
ENDSEC
   0
EOF
